Coldplay - Dont Panic Chords & Tabs

 

Dont Panic Chords & Tabs

Coldplay Chords & Tabs

Version: 3 Type: Bass Tab

Dont Panic Bass Tab

DON'T PANIC
Coldplay
Parachutes
Words & Music by Guy Berryman, Jon Buckland, Will Champion & Chris Martin
122 bpm
tabbed by Coldplayeroy




INTRO (no bass)



VERSE 1, 2. (Verse 3 Piano solo)

4/4
||----------------|---------------|--------------|----------------|
||-o-7------------|---------------|--------------|----------------|
||-o--------------|-----------10--|-8---8-8-8--8-|-8-8--8-8-8-----|
||-------5---5-7--|-8---8---8---8-|--------------|------------8-7-|

|--------------|---------------|--------------|-----------------||
|--------------|---------------|--------------|-----------------||
|--------------|-----------10--|-8---8-8-8--8-|-8-8--8-8-10-8-7-||
|-5---5---5-7--|-8---8---8---8-|--------------|-----------------||

CHORUS

|---------------|---------------|--------------|-----------------|
|---------------|---------------|--------------|-----------------|
|-5-5--5-5-5--5-|-5-5--5-5-5--5-|--------------|-R---R-----------|
|---------------|---------------|-5---5-5-5--5-|---3---3---3-3-5-|

|--------------|---------------|--------------|-------------------|| 3x
|--------------|-----------7-5-|--------------|-----------5-5-5-o-||
|-5---5-5-5--5-|-5---5-5-5-----|-8---8-8-8--8-|-8-7-8-7-8-------o-||
|--------------|---------------|--------------|-------------------||

GUITAR SOLO
[ Tab from: http://www.guitartabs.cc/tabs/c/coldplay/dont_panic_btab_ver_3.html ]
|--------------|---------------|--------------|----------------|
|-7------------|---------------|--------------|----------------|
|--------------|-----------10--|-8---8-8-8--8-|-8-8--8-8-8-----|
|-----5---5-7--|-8---8---8---8-|--------------|------------8-7-|

|--------------|---------------|--------------|----------------||
|--------------|---------------|--------------|----------------||
|--------------|-----------10--|-8---8-8-8--8-|-8-8--8-8-8-----||
|-5---5---5-7--|-8---8---8---8-|--------------|------------8-7-||

VERSE 4

|--------------|---------------|--------------|----------------|
|--------------|---------------|--------------|----------------|
|--------------|-----------10--|-8---8-8-8--8-|-8-8--8-8-8-----|
|-5---5---5-7--|-8---8---8---8-|--------------|------------8-7-|

|--------------|---------------|--------------||
|--------------|---------------|--------------||
|--------------|-----------10--|-8---8-8------||
|-5---5---5-7--|-8---8---8---8-|--------------||





lyrics:

VERSE 1, 2. (verse 3 Piano solo):
Bones, sinking like stones, all that we've fought for.
Homes, places we've grown, all of us are done for.

CHORUS:
And we live in a beautiful world,
yeah, we do, yeah, we do.
We live in a beautiful world.

VERSE 4:
Oh, all that I know, there's nothing here to run from,
cos yeah, ev'ry body here's got somebody to lean on.