Coldplay - Daylight Chords & Tabs

 

Daylight Chords & Tabs

Coldplay Chords & Tabs

Version: 1 Type: Tab 0 ratings
1 star 2 stars 3 stars 4 stars 5 stars
comments

Daylight Tab

   
"Daylight" - Coldplay

Words and Music by: Guy Berryman, Jon Buckland, Will Champion 
& Chris Martin.

Tabbed by: Andrew Muir


Chords:
Capo second fret

Intro: Guitar fill played on Indian Strings

  F#               F#               F#               F#
f#|-0--------------|-0--------------|-0--------------|-0--------------|
C#|-0--------------|-0--------------|-0--------------|-0--------------|
A |-1--------------|-1--------------|-1--------------|-1--------------|
E |-2--------------|-2--------------|-2--------------|-2--------------|
B |-2--------------|-2--------------|-2--------------|-2--------------|
F#|-0--------------|-0--------------|-0--------------|-0--------------|


  A/F#             G/F#             F#              F#
|-0--------------|-0--------------|-0--------------|-0--------------|
|-0--------------|-0--------------|-0--------------|-0--------------|
|-4--------------|-2--------------|-1--------------|-1--------------|
|-5--------------|-3--------------|-2--------------|-2--------------|
|-5--------------|-3--------------|-2--------------|-2--------------|
|-3--------------|-1--------------|-0--------------|-0--------------|


  A/F#             G/F#             F#               F#
|-0--------------|-0--------------|-0--------------|-0--------------|
|-0--------------|-0--------------|-0--------------|-0--------------|
|-4--------------|-2--------------|-1--------------|-1--------------|
|-5--------------|-3--------------|-2--------------|-2--------------|
|-5--------------|-3--------------|-2--------------|-2--------------|
|-3--------------|-1--------------|-0--------------|-0--------------|


Verses 1 & 2:


  A/F#             G/F#             F#               F#
|-0--------------|-0--------------|-0--------------|-0--------------|
|-0--------------|-0--------------|-0--------------|-0--------------|
|-4--------------|-2--------------|-4--------------|-4--------------|
|-5--------------|-3--------------|-5--------------|-5--------------|
|-5--------------|-3--------------|-5--------------|-5--------------|
|-3--------------|-1--------------|-3--------------|-3--------------|


  A/F#             G/F#             F#               F#
|-0--------------|-0--------------|-0--------------|-0--------------|
|-0--------------|-0--------------|-0--------------|-0--------------|
|-4--------------|-2--------------|-4--------------|-4--------------|
|-5--------------|-3--------------|-5--------------|-5--------------|
|-5--------------|-3--------------|-5--------------|-5--------------|
|-3--------------|-1--------------|-3--------------|-3--------------|


  A/F#             G/F#             F#               F#
|-0--------------|-0--------------|-0--------------|-0--------------|
|-0--------------|-0--------------|-0--------------|-0--------------|
|-4--------------|-2--------------|-4--------------|-4--------------|
|-5--------------|-3--------------|-5--------------|-5--------------|
|-5--------------|-3--------------|-5--------------|-5--------------|
|-3--------------|-1--------------|-3--------------|-3--------------

  A/F#             G/F#             F#               F#
|-0--------------|-0--------------|-0--------------|-0--------------|
|-0--------------|-0--------------|-0--------------|-0--------------|
|-4--------------|-2--------------|-4--------------|-4--------------|
|-5--------------|-3--------------|-5--------------|-5--------------|
|-5--------------|-3--------------|-5--------------|-5--------------|
|-3--------------|-1--------------|-3--------------|-3--------------|
 
  A/F#             G/F#             F#               F#
|-0--------------|-0--------------|-0--------------|-0--------------|
|-0--------------|-0--------------|-0--------------|-0--------------|
|-4--------------|-2--------------|-4--------------|-4--------------|
|-5--------------|-3--------------|-5--------------|-5--------------|
|-5--------------|-3--------------|-5--------------|-5--------------|
|-3--------------|-1--------------|-3--------------|-3--------------|

[ Tab from: http://www.guitartabs.cc/tabs/c/coldplay/daylight_tab.html ]
  A/F#             G/F#             F#               F#
|-0--------------|-0--------------|-0--------------|-0--------------|
|-0--------------|-0--------------|-0--------------|-0--------------|
|-4--------------|-2--------------|-4--------------|-4--------------|
|-5--------------|-3--------------|-5--------------|-5--------------|
|-5--------------|-3--------------|-5--------------|-5--------------|
|-3--------------|-1--------------|-3--------------|-3--------------|


  A/F#             G/F#             F#               F#
|-0--------------|-0--------------|-0--------------|-0--------------|
|-0--------------|-0--------------|-0--------------|-0--------------|
|-4--------------|-2--------------|-4--------------|-4--------------|
|-5--------------|-3--------------|-5--------------|-5--------------|
|-5--------------|-3--------------|-5--------------|-5--------------|
|-3--------------|-1--------------|-3--------------|-3--------------|


  A/F#             G/F#             F#               F#
|-0--------------|-0--------------|-0--------------|-0--------------|
|-0--------------|-0--------------|-0--------------|-0--------------|
|-4--------------|-2--------------|-4--------------|-4--------------|
|-5--------------|-3--------------|-5--------------|-5--------------|
|-5--------------|-3--------------|-5--------------|-5--------------|
|-3--------------|-1--------------|-3--------------|-3--------------|


Chorus:

Ooh---           ---              --and the sun will shine
  Amaj7            Amaj7            Dmaj7             Dmaj7
|-2--------------|-2--------------|-0--------------|-0--------------|
|-0--------------|-0--------------|-0--------------|-0--------------|
|-4--------------|-4--------------|-0--------------|-0--------------|
|-4--------------|-4--------------|-2--------------|-2--------------|
|-X--------------|-X--------------|-3--------------|-3--------------|
|-3--------------|-3--------------|-3--------------|-3--------------|


  F#               F#               Amaj9            Amaj9
|-0--------------|-0--------------|-2--------------|-2--------------|
|-0--------------|-0--------------|-0--------------|-0--------------|
|-1--------------|-1--------------|-2--------------|-2--------------|
|-2--------------|-2--------------|-0--------------|-0--------------|
|-2--------------|-2--------------|-X--------------|-X--------------|
|-0--------------|-0--------------|-3--------------|-3--------------|

   
  Amaj7            Amaj7            Dmaj7             Dmaj7
|-2--------------|-2--------------|-0--------------|-0--------------|
|-0--------------|-0--------------|-0--------------|-0--------------|
|-4--------------|-4--------------|-0--------------|-0--------------|
|-4--------------|-4--------------|-2--------------|-2--------------|
|-X--------------|-X--------------|-3--------------|-3--------------|
|-3--------------|-3--------------|-3--------------|-3--------------|


  F#               F#               Amaj9            Amaj9
|-0--------------|-0--------------|-2--------------|-2--------------|
|-0--------------|-0--------------|-0--------------|-0--------------|
|-1--------------|-1--------------|-2--------------|-2--------------|
|-2--------------|-2--------------|-0--------------|-0--------------|
|-2--------------|-2--------------|-X--------------|-X--------------|
|-0--------------|-0--------------|-3--------------|-3--------------|


  Amaj7            Amaj7            Dmaj7             Dmaj7
|-2--------------|-2--------------|-0--------------|-0--------------|
|-0--------------|-0--------------|-0--------------|-0--------------|
|-4--------------|-4--------------|-0--------------|-0--------------|
|-4--------------|-4--------------|-2--------------|-2--------------|
|-X--------------|-X--------------|-3--------------|-3--------------|
|-3--------------|-3--------------|-3--------------|-3--------------|


  F#               F#               F#               F#
|-0--------------|-0--------------|-0--------------|-0--------------|
|-0--------------|-0--------------|-0--------------|-0--------------|
|-1--------------|-1--------------|-1--------------|-1--------------|
|-2--------------|-2--------------|-2--------------|-2--------------|
|-2--------------|-2--------------|-2--------------|-2--------------|
|-0--------------|-0--------------|-0--------------|-0--------------|



...from here, go back to the very beginning and start with the second 
verse, and repeat the chorus a second time. For the third verse, 
the lyrics are:
                
   "Slowly breaking through the daylight"
..and the song ends by fading out.


Any thoughts or feedback please write:  andrew_muir69@hotmail.com
Comments