Coldplay - A Message Chords & Tabs

 

A Message Chords & Tabs

Coldplay Chords & Tabs

Version: 4 Type: Chords 0 ratings
1 star 2 stars 3 stars 4 stars 5 stars
comments

A Message Chords

   
Coldplay - A Message
X & Y

Tabbed by Keir Alexander


***Guitar tuned to half a tone down***  Eb Ab Db Gb Bb Eb

I'll name chords as if they were in standard tuning. E.g, D is actually (Db).

Intro and Verse Chords:

	    D(Db)  F#m(Fm)   a(Ab)     G(F#)    F#m(alternative)
Eb|--------0--------0--------0--------0--------0--------|
Bb|--------0--------2--------0--------0--------0--------|
Gb|--------7--------2--------6--------4--------2--------|
Db|--------7--------0--------7--------5--------4--------|
Ab|--------5--------0--------7--------5--------4--------|
Eb|--------x--------2--------5--------3--------2--------|

Chorus Chords:

          E(Eb)    D(Db)    a(Ab)
Eb|--------0--------0--------0--------|
Bb|--------0--------0--------0--------|
Gb|--------9--------7--------6--------|
Db|--------9--------7--------7--------|
Ab|--------7--------5--------7--------|
Eb|--------x--------x--------5--------|


(verse 1)
D            F#m      a
  My song is love
D             F#m       a
  Love to the lover's shone
D             F#m      a
  And it goes on
          G       F#m   a
You don't have to be alone


[ Tab from: http://www.guitartabs.cc/tabs/c/coldplay/a_message_crd_ver_4.html ]
(verse 2)
D             F#m    a
  Your heavy heart
D            F#m       a        G
  Is made of stone
D            F#m      a    
 And it's so hard to see, clearly
          G          F#m       a
You don't have to be on your own
          G          F#m        a
You don't have to be on your own




(chorus 1)
E                       D        a
   And I'm not going to take it back
E                               D              a
   well I'm not going to say I don't mean that
E                              D          a                     
   You're the target that I'm aiming at
      G        F#m       a
And I get that message home

(verse 3)
My song is love
My song is love, I know
And I'm on fire for you, clearly
You don't have to be alone
You don't have to be on your own

(chorus 2)
And I'm not going to take it back
well I'm not going to say I don't mean that
You're the target that I'm aiming at
But I'm nothing on my own
Got to get that message home

(solo) [over chorus chords]

(chorus 3)
and im not gonna stand and wait 
not gonna kneel there until its much to late
on a platform im gonna stand and say
that I'm nothing on my own
and I love you please come home

(outro)
G          F#m
my song is love 
a        G
is love I know
         G       F#m     a       D
and I've got to get that message home



keiralx@yahoo.co.uk
MS Word font [courier] size [10]
Comments