Coldplay - A Message Chords & Tabs

 

A Message Chords & Tabs

Coldplay Chords & Tabs

Version: 1 Type: Chords 0 ratings
1 star 2 stars 3 stars 4 stars 5 stars
comments

A Message Chords

   
Ok this is my 1st try for this new song for their
3rd album X&Y.

Tuning E A C# G b C# 

verse 
c# |-0------0------0\\0----| 
b  |-9------1------4\\2----| 
g  |-10-----1------5\\3----| 
c# |-0------0------0\\0----| 
a  |-x------x------x\\x----| 
e  |-9------1------4\\2----| 
[ Tab from: http://www.guitartabs.cc/tabs/c/coldplay/a_message_crd.html ]
pre-chorus 
c# |-0------0------0-------| 
b  |-2------9------4-------| 
g  |-3-----10------5-------| 
c# |-0------0------0-------| 
a  |-x------x------x-------| 
e  |-2------9------4-------| 

chorus 
c# |-0------0------0-------| 
b  |-11-----9------4-------| 
g  |-11-----10-----5-------| 
c# |-0------0------0-------| 
a  |-13-----x------x-------| 
e  |-11-----9------4-------| 

solo (hold the c#major chord for 1 bar longer) 
c# |-0------0------0-------| 
b  |-11-----9------4-------| 
g  |-11-----10-----5-------| 
c# |-0------0------0-------| 
a  |-13-----x------x-------| 
e  |-11-----9------4-------| 

Comments or suggestions welcome 
E-mail coldplay25801@yahoo.com
Comments