Coldplay - 42 Chords & Tabs

 

42 Chords & Tabs

Coldplay Chords & Tabs

Version: 2 Type: Tab 0 ratings
1 star 2 stars 3 stars 4 stars 5 stars
comments

42 Tab

   
-------------------------------------------------------------------------------
			     42 - Coldplay
-------------------------------------------------------------------------------
Tabbed by:willistabs
Email:maxwillis@yahoo.co.uk

Tuning:EADGBE
The Intro, played softly.
e|--------------------------------------------------------------------------|
B|--------------------------------------------------------------------------|
G|--------------------------------------------------------------------------|
D|10-10-10-10-10-10-10-10--8--8--8--8--6--6--6--6---------------------------|
A|10-10-10-10-10-10-10-10--8--8--8--8--6--6--6--6---------------------------|
E|-8--8--8--8--8--8--8--8--6--6--6--6--4--4--4--4---------------------------|
Then

e|--------------------------------------------------------------------------|
B|--------------------------------------------------------------------------|
G|--------------------------------------------------------------------------|
D|10-10-10-10-10-10-10-10--8--8--8--8--6--6--6------------------------------|
A|10-10-10-10-10-10-10-10--8--8--8--8--6--6--6------------------------------|
E|-8--8--8--8--8--8--8--8--6--6--6--6--4--4--4--6h7-------------------------|
Followed By

e|--------------------------------------------------------------------------|
B|--------------------------------------------------------------------------|
G|--------------------------------------------------------------------------|
D|10-10-10-10--8--8--8--8-10--12--14----------------------------------------|
A|10-10-10-10--8--8--8--8-10--12--14----------------------------------------|
E|-8--8--8--8--6--6--6--6--8--10--12----------------------------------------|
[ Tab from: http://www.guitartabs.cc/tabs/c/coldplay/42_tab_ver_2.html ]
e|--------------------------------------------------------------------------|
B|--------------------------------------------------------------------------|
G|--------------------------------------------------------------------------|
D|10-10-10-10-10-10-10-10--8--8--8--8--6--6--6--6---------------------------|
A|10-10-10-10-10-10-10-10--8--8--8--8--6--6--6--6-----(Played Twice).-------|
E|-8--8--8--8--8--8--8--8--6--6--6--6--4--4--4--4---------------------------|

e|--------------------------------------------------------------------------|
B|--------------------------------------------------------------------------|
G|--------------------------------------------------------------------------|
D|10-10-10-10--8--8--8--8-10--12--14----------------------------------------|
A|10-10-10-10--8--8--8--8-10--12--14----------------------------------------|
E|-8--8--8--8--6--6--6--6--8--10--12----------------------------------------|

e|---------------------------------------------------------------------------
B|---------------------------------------------------------------------------
G|--------------------------------------------------------------------------|
D|10--12--14-10-------------------------------------------------------------|
A|10--12--14-10-------------------------------------------------------------|
E|-8--10--12--8-------------------------------------------------------------|

EI-------------------------------------------------------------------------
BI-10--6-8--6---6--8-9-8--6--6--10--6-8--6---6--8-9-8--6--6--10--6-8-------
GI-------------------------------------------------------------------------
DI-------------------------------------------------------------------------
AI-------------------------------------------------------------------------
EI-------------------------------------------------------------------------

                              ( X4)

EI--------------------------------------------------------------------------
BI-9--9--9-9--9--9--9--9-9--9--9--9-9--11--6--10--6-8-----------------------
GI--------------------------------------------------------------------------
DI--------------------------------------------------------------------------
AI--------------------------------------------------------------------------
EI--------------------------------------------------------------------------
Thats the end of the intro and the rest will follow.


| /  slide up
| \  slide down
| h  hammer-on
| p  pull-off
| ~  vibrato
| +  harmonic
| x  Mute note
===============================================================================
Comments