Coldfusion - Living Lie Chords & Tabs

 

Living Lie Chords & Tabs

Coldfusion Chords & Tabs

Version: 1 Type: Tab 0 ratings
1 star 2 stars 3 stars 4 stars 5 stars
comments

Living Lie Tab

   
Cold Fusion is a new band attempting to make it big. They have plenty of publicity
from performing in areas of; Nevada, California, and Arizona. I saw them here in
Tucson, Arizona, and I liked their music that I had to buy their CD. Well, this is
Living Lie by them; it's my second favorite song by them. My favorite song, Pain of
Tragedy, I'll tab later. But anyway, I'm sure it's correct or at least 99.9% right,
so, yeah, enjoy!

This song is in drop D tuning; e,B,G,D,A,D

Intro
Guitar 1(play twice by itself.)

e|------------------------------------------------------------------|
B|------------------------------------------------------------------|
G|-------------------19-19-19-17-17-17-17-17------------------------|
D|-15-15-15-13-13-13-19-19-19-17-17-17-17-17------------------------|
A|-15-15-15-13-13-13-17-17-17-15-15-15-15-15------------------------|
D|-15-15-15-13-13-13------------------------------------------------|

Guitar 2(after guitar 1 plays that twice, guitar 2 enters)

Play both guitars together three times.
e|------------------------------------------------------------------|
B|------------------------------------------------------------------|
G|------------------------------------------------------------------|
D|-15-13/2----------------------------------------------------------|
A|-15-13/2----------------------------------------------------------|
D|-15-13/2----------------------------------------------------------|

The fourth time play this

Guitar 1(continue to play two more times after guitar 2)

e|------------------------------------------------------------------|
B|------------------------------------------------------------------|
G|-------------------19-19-19-17-17-17-17-17------------------------|
D|-15-15-15-13-13-13-17-17-17-15-15-15-15-15------------------------|
A|-15-15-15-13-13-13-17-17-17-15-15-15-15-15------------------------|
D|-15-15-15-13-13-13------------------------------------------------|

Guitar 2(play once)

e|------------------------------------------------------------------|
B|------------------------------------------------------------------|
G|------------------------------------------------------------------|
D|-15~~~------------------------------------------------------------|
A|-15~~~------------------------------------------------------------|
D|-15~~~------------------------------------------------------------|

Riff
Both guitars

e|------------------------------------------------------------------|
B|------------------------------------------------------------------|
G|------------------------------------------------------------------|
D|-3-3-1-1-3-3-0-0-0-0--3-3-1-1-3-3-0-0-0-0-0-----------------------|
A|-3-3-1-1-3-3-0-0-0-0--3-3-1-1-3-3-0-0-0-0-0-----------------------|
D|-3-3-1-1-3-3-0-0-0-0--3-3-1-1-3-3-0-0-0-0-0-----------------------|
                                      ^ ^ ^
                                     pm those
Riff cont.

e|------------------------------------------------------------------|
B|------------------------------------------------------------------|
G|------------------------------------------------------------------|
D|-3-3-1-1-3-3-0-0-0-0--3-3-1-1-3-3-0-0-0-0-------------------------|
A|-3-3-1-1-3-3-0-0-0-0--3-3-1-1-3-3-0-0-0-0-------------------------|
D|-3-3-1-1-3-3-0-0-0-0--3-3-1-1-3-3-0-0-0-0-------------------------|

Verse 1 (X3)
1 Guitar plays this

e|------------------------------------------------------------------|
B|------------------------------------------------------------------|
G|------------------------------------------------------------------|
D|---15-15--13-13-10-11-12-11-9-------------------------------------|
A|------------------------------------------------------------------|
D|-13-----11-----8--------------------------------------------------|

Verse 2
After the third time play this.

e|------------------------------------------------------------------|
B|------------------------------------------------------------------|
G|------------------------------------------------------------------|
D|-3-5-7-6-4-3------------------------------------------------------|
A|------------------------------------------------------------------|
D|------------------------------------------------------------------|

Chorus

e|-------------------------------------------------------------------|
B|-------------------------------------------------------------------|
G|-------------------------------------------------------------------|
D|-3-3-1-1-3-3-0-0-0-0--3-3-1-1-3-3-0-0-0-0-0------------------------|
A|-3-3-1-1-3-3-0-0-0-0--3-3-1-1-3-3-0-0-0-0-0------------------------|
D|-3-3-1-1-3-3-0-0-0-0--3-3-1-1-3-3-0-0-0-0-0------------------------|
                                      ^ ^ ^
                                     pm those
Chorus cont.

e|-------------------------------------------------------------------|
B|-------------------------------------------------------------------|
G|-------------------------------------------------------------------|
D|-3-3-1-1-3-3-0-0-0-0--3-3-1-1-3-3-0-0-0-0--x-x-x-x-3---------------|
A|-3-3-1-1-3-3-0-0-0-0--3-3-1-1-3-3-0-0-0-0--x-x-x-x-3---------------|
D|-3-3-1-1-3-3-0-0-0-0--3-3-1-1-3-3-0-0-0-0--x-x-x-x-3---------------|
[ Tab from: http://www.guitartabs.cc/tabs/c/coldfusion/living_lie_tab.html ]
Chorus cont. (again)

e|-------------------------------------------------------------------|
B|-------------------------------------------------------------------|
G|-------------------------------------------------------------------|
D|-3-3-1-1-3-3-0-0-0-0---3-3-3-3-3-3~~~------------------------------|
A|-3-3-1-1-3-3-0-0-0-0---3-3-3-3-3-3~~~------------------------------|
D|-3-3-1-1-3-3-0-0-0-0---3-3-3-3-3-3~~~------------------------------|

Verse 1 (X3)
1 Guitar plays this

e|------------------------------------------------------------------|
B|------------------------------------------------------------------|
G|------------------------------------------------------------------|
D|---15-15--13-13-10-11-12-11-9-------------------------------------|
A|------------------------------------------------------------------|
D|-13-----11-----8--------------------------------------------------|

Verse 3
After the third time play this.

e|------------------------------------------------------------------|
B|------------------------------------------------------------------|
G|------------------------------------------------------------------|
D|-3-5-6------------------------------------------------------------|
A|------------------------------------------------------------------|
D|------------------------------------------------------------------|

Chorus

Solo

e|-------------------------------------------------------------------
B|-------------------------------------------------------------------
G|-----------------------7-9-9-9-10b-13-12-10-13-12-10-13-12-10------
D|-4-6-7-5--5-7-9-6--7-9---------------------------------------------
A|-------------------------------------------------------------------
D|-------------------------------------------------------------------

e|-------------11--11-11-11-11-13-16-15-13-16-15-13-16-15-13---------
B|-------------------------------------------------------------------
G|-10/9-9/8-8b-------------------------------------------------------
D|-------------------------------------------------------------------
A|-------------------------------------------------------------------
D|-------------------------------------------------------------------

e|-11-11-11-11-11-13-16-15-13-16-15-13-16-15-13---------------------|
B|------------------------------------------------------------------|
G|------------------------------------------------------------------|
D|----------------------------------------------15-15-15-13-13-13---|
A|----------------------------------------------15-15-15-13-13-13---|
D|----------------------------------------------15-15-15-13-13-13---|

Outro

e|------------------------------------------------------------------|
B|------------------------------------------------------------------|
G|------------------------------------------------------------------|
D|-3-3-3-3-0-0-0-0-2-2-2-2-0-0-1-1-3-3-3-3-0-0-0-0-2-2-2-2-0-0-1-1--|
A|-3-3-3-3-0-0-0-0-2-2-2-2-0-0-1-1-3-3-3-3-0-0-0-0-2-2-2-2-0-0-1-1--|
D|-3-3-3-3-0-0-0-0-2-2-2-2-0-0-1-1-3-3-3-3-0-0-0-0-2-2-2-2-0-0-1-1--|

e|------------------------------------------------------------------|
B|------------------------------------------------------------------|
G|------------------------------------------------------------------|
D|-x-x-x-x-3--0-0-0-0-2-2-2-2-0-0-1-1-x-x-x-x-3---------------------|
A|-x-x-x-x-3--0-0-0-0-2-2-2-2-0-0-1-1-x-x-x-x-3---------------------|
D|-x-x-x-x-3--0-0-0-0-2-2-2-2-0-0-1-1-x-x-x-x-3---------------------|

e|------------------------------------------------------------------|
B|------------------------------------------------------------------|
G|------------------------------------------------------------------|
D|-0-0-0-0-2-2-2-2-0-0-1-1-x-x-x-x-3--------------------------------|
A|-0-0-0-0-2-2-2-2-0-0-1-1-x-x-x-x-3--------------------------------|
D|-0-0-0-0-2-2-2-2-0-0-1-1-x-x-x-x-3--------------------------------|

e|------------------------------------------------------------------|
B|------------------------------------------------------------------|
G|------------------------------------------------------------------|
D|-0-0-0-0-2-2-2-2-0-0-1-1-x-x-x-x-3--------------------------------|
A|-0-0-0-0-2-2-2-2-0-0-1-1-x-x-x-x-3--------------------------------|
D|-0-0-0-0-2-2-2-2-0-0-1-1-x-x-x-x-3--------------------------------|

e|------------------------------------------------------------------|
B|------------------------------------------------------------------|
G|------------------------------------------------------------------|
D|-0-0-0-0-2-2-2-2-3-3-3-5-5-5-7-7-7-3------------------------------|
A|-0-0-0-0-2-2-2-2-3-3-3-5-5-5-7-7-7-3------------------------------|
D|-0-0-0-0-2-2-2-2-3-3-3-5-5-5-7-7-7-3------------------------------|
                   pm-------------pm

e|------------------------------------------------------------------|
B|------------------------------------------------------------------|
G|------------------------------------------------------------------|
D|-0-0-0-0-2-2-2-2-0-0-1-1-x-x-x-3-0-0-0-1-1-1-3~~~-----------------|
A|-0-0-0-0-2-2-2-2-0-0-1-1-x-x-x-3-0-0-0-1-1-1-3~~~-----------------|
D|-0-0-0-0-2-2-2-2-0-0-1-1-x-x-x-3-0-0-0-1-1-1-3~~~-----------------|

Intro
Riff
Verse 1 X3
Verse 2 
Verse 1 X7
Chorus 
Verse 1 X3
Verse 3
Verse 1 X7
Chorus 
Solo
Outro
Comments