Cold Chisel - My Baby Chords & Tabs

 

Cold Chisel Chords & Tabs

Version: 2 Type: Bass Tab 0 ratings
1 star 2 stars 3 stars 4 stars 5 stars
comments

My Baby Bass Tab

COLD CHISEL - "My Baby" - Bass Tab


Common Time(4/4)
Standard Tuning(EADG)


INTRO:

|-------|------------------|-----------------|-----------------|
|-------|*-----------------|-5-5-5-5-5-5-5---|-----------------|
|-r-r-2-|*-3-3-3-3-3-3-3-3-|-----------------|-----------------|
|-------|------------------|---------------3-|-5-5-5-5-5-5-5-5-|
  & 4 &    1 & 2 & 3 & 4 &   1 & 2 & 3 & 4 &   1 & 2 & 3 & 4 &


|-----------------|-----------------|-----------------|
|-2-2-2-2-2-2-2-2-|-3-3-3-3-3-3-3-3-|-5-5-5-5-5-5-5---|
|-----------------|-----------------|---------------5-|
|-----------------|-----------------|-----------------|
  1 & 2 & 3 & 4 &   1 & 2 & 3 & 4 &   1 & 2 & 3 & 4 &

                    ______             ______
                   |1.                |2.
|-----------------|------------------|-----------------|
|-----------------|---5-5-5-5-5-5-5-*|-----------------|
|-3-3-3-3-3-3-3-3-|-3---------------*|-3-3-3-3-3-3-3-3-|
|-----------------|------------------|-----------------|
  1 & 2 & 3 & 4 &   1 & 2 & 3 & 4 &    1 & 2 & 3 & 4 &

                                       ______
                                      |1. 
|------------------|-----------------|-----------------|
|*-2-3-3-3-2-3-3-3-|-2-3-3-3-2-3-3-3-|-----------------|
|*-----------------|-----------------|-2-3-3-3-2-3-3-3-|
|------------------|-----------------|-----------------|
   1 & 2 & 3 & 4 &   1 & 2 & 3 & 4 &   1 & 2 & 3 & 4 &

                     ______ 
                    |2.
|------------------|---------------|-2-5-r-2-r-----|
|-----------------*|-5-5-5-5-5-2-5-|-----------5---|
|-2-3-3-3-2-3-3-3-*|---------------|---------------|
|------------------|---------------|---------------|
  1 & 2 & 3 & 4 &    1 & 2 & 3 & 4   1 & 2 & 3 & 4 


VERSE 1:

|------------------|-----------------|-----------------|
|*-----------------|-5-5-5-5-5-5-5---|-----------------|
|*-3-3-3-3-3-3-3-3-|-----------------|-----------------|
|------------------|---------------3-|-5-5-5-5-5-5-5-5-|
   1 & 2 & 3 & 4 &   1 & 2 & 3 & 4 &   1 & 2 & 3 & 4 &


|-----------------|-----------------|-----------------|
|-2-2-2-2-2-2-2-2-|-3-3-3-3-3-3-3-3-|-5-5-5-5-5-5-5---|
|-----------------|-----------------|---------------5-|
|-----------------|-----------------|-----------------|
  1 & 2 & 3 & 4 &   1 & 2 & 3 & 4 &   1 & 2 & 3 & 4 &

                    ______             ______
                   |1.                |2.
|-----------------|------------------|-----------------|
|-----------------|---5-5-5-5-5-5-5-*|-----------------|
|-3-3-3-3-3-3-3-3-|-3---------------*|-3-3-3-3-3-3-3-3-|
|-----------------|------------------|-----------------|
  1 & 2 & 3 & 4 &   1 & 2 & 3 & 4 &    1 & 2 & 3 & 4 &


1ST CHORUS:                            ______
                                      |1. 
|------------------|-----------------|-----------------|
|*-2-3-3-3-2-3-3-3-|-2-3-3-3-2-3-3-3-|-----------------|
|*-----------------|-----------------|-2-3-3-3-2-3-3-3-|
|------------------|-----------------|-----------------|
   1 & 2 & 3 & 4 &   1 & 2 & 3 & 4 &   1 & 2 & 3 & 4 &

                     ______ 
                    |2.
|------------------|-----------------|-------------|
|-----------------*|-5-5-5-5-5-5-5-5-|-5-5-5-5-5-5-|
|-2-3-3-3-2-3-3-3-*|-----------------|-------------|
|------------------|-----------------|-------------|
  1 & 2 & 3 & 4 &    1 & 2 & 3 & 4 &   1 & 2 3 & 4 


AFTER-CHORUS:                          ______
                                      |1.
|------------------|-----------------|-----------------|
|*-----------------|-----------------|-----------------|
|*-----------------|-----------------|-----------------|
|--3-5-5-5-3-5-5-5-|-3-5-5-5-5-3---3-|-0-1-1-1-0-1-1-1-|
   1 & 2 & 3 & 4 &   1 & 2 & 3 & 4 &   1 & 2 & 3 & 4 &
[ Tab from: http://www.guitartabs.cc/tabs/c/cold_chisel/my_baby_btab_ver_2.html ]
                     _____
                    |2.
|------------------|-----------------|-----------------|
|-----------------*|-----------------|-3-3-3-3-3-------|
|-----------------*|-5-5-5-5-5-5-5-5-|-----------0-1-2-|
|-0-1-1-1-0-1---1--|-----------------|-----------------|
  1 & 2 & 3 & 4 &    1 & 2 & 3 & 4 &   1 & 2 & 3 & 4 &


VERSE 2 & 3

|-----------------|-----------------|-----------------|
|-----------------|-5-5-5-5-5-5-5---|-----------------|
|-3-3-3-3-3-3-3-3-|-----------------|-----------------|
|-----------------|---------------3-|-5-5-5-5-5-5-5-5-|
   1 & 2 & 3 & 4 &   1 & 2 & 3 & 4 &   1 & 2 & 3 & 4 &


|-----------------|-----------------|-----------------|
|-2-2-2-2-2-2-2-2-|-3-3-3-3-3-3-3-3-|-5-5-5-5-5-5-5---|
|-----------------|-----------------|---------------5-|
|-----------------|-----------------|-----------------|
  1 & 2 & 3 & 4 &   1 & 2 & 3 & 4 &   1 & 2 & 3 & 4 &


|-----------------|-----------------|
|-----------------|-----------------|
|-3-3-3-3-3-3-3-3-|-3-3-3-3-3-3-3-3-|
|-----------------|-----------------|
  1 & 2 & 3 & 4 &   1 & 2 & 3 & 4 &


2ND & 3RD CHORUS:                      ______
                                      |1. 
|------------------|-----------------|-----------------|
|*-2-3-3-3-2-3-3-3-|-2-3-3-3-2-3-3-3-|-----------------|
|*-----------------|-----------------|-2-3-3-3-2-3-3-3-|
|------------------|-----------------|-----------------|
   1 & 2 & 3 & 4 &   1 & 2 & 3 & 4 &   1 & 2 & 3 & 4 &

                     ______ 
                    |2.
|------------------|---------------|-2-5-r-2-r-----|
|-----------------*|-5-5-5-5-5-2-5-|-----------5---|
|-2-3-3-3-2-3-3-3-*|---------------|---------------|
|------------------|---------------|---------------|
  1 & 2 & 3 & 4 &    1 & 2 & 3 & 4   1 & 2 & 3 & 4 


INSTRUMENTAL:

|-----------------|-----------------|-----------------|
|-----------------|-----------------|-----------------|
|-3-3-3-3-3-3-3-3-|-3-3-3-3-3-3-3---|-----------------|
|-----------------|---------------3-|-5-5-5-5-5-5-5-3-|
  1 & 2 & 3 & 4 &   1 & 2 & 3 & 4 &   1 & 2 & 3 & 4 &


|-----------------|-----------------|-----------------|
|-----------------|-----------------|-----------------|
|-----------------|-----------------|-----------------|
|-0-0-0-0-0-0-0-0-|-1-1-1-1-1-1-1-1-|-3-3-3-3-3-3-3-3-|
  1 & 2 & 3 & 4 &   1 & 2 & 3 & 4 &   1 & 2 & 3 & 4 &


|-----------------|-----------------|-----------------|
|-----------------|---5-5-5-5-3-2---|-----------------|
|-3-3-3-3-3-3-3-3-|-3-------------5-|-3-3-3-3-3-3-3-3-|
|-----------------|-----------------|-----------------|
  1 & 2 & 3 & 4 &   1 & 2 & 3 & 4 &   1 & 2 & 3 & 4 &


|-----------------|-----------------|-----------------|
|-5-5-5-5-5-5-5---|-----------------|-----------------|
|-----------------|-----------------|-----------------|
|---------------3-|-5-5-5-5-5-5-5-5-|-0-0-0-0-0-0-0-0-|
  1 & 2 & 3 & 4 &   1 & 2 & 3 & 4 &   1 & 2 & 3 & 4 &


|-----------------|-----------------|-----------------|
|-----------------|-----------------|-----------------|
|-----------------|-----------------|-3-3-3-3-3-3-3-3-|
|-1-1-1-1-1-1-1-1-|-3-3-3-3-3-3-3-3-|-----------------|
  1 & 2 & 3 & 4 &   1 & 2 & 3 & 4 &   1 & 2 & 3 & 4 &


|-----------------|
|-----------------|
|-3-3-3-3-3-3-3-3-|
|-----------------|
  1 & 2 & 3 & 4 &


END:

|-----------------|---7---5-------|-----------------|
|-2-3-3-3-2-3-3-3-|-----------7---|-----------------|
|-----------------|---------------|-2-3-3-3-2-3-3-3-|
|-----------------|---------------|-----------------|
  1 & 2 & 3 & 4 &   1 & 2 & 3 & 4   1 & 2 & 3 & 4 &


|-------------2-5-|-----------------|-----------------|
|---------3-5-----|-2-3-3-3-2-3-3-3-|-2-3-3-3-2-3-3-3-|
|-2-3-3-3---------|-----------------|-----------------|
|-----------------|-----------------|-----------------|
  1 & 2 & 3 & 4 &   1 & 2 & 3 & 4 &   1 & 2 & 3 & 4 &


|---------------|-2-5-r-2-r-----|
|-5-5-5-5-5-2-5-|-----------5-r-|
|---------------|---------------| (fade-out)
|---------------|---------------|
  1 & 2 & 3 & 4   1 & 2 & 3 & 4 

By: Johari Taylor
E-mail: viking@powerup.com.au

Comments