Cold Chisel - Khe Sahn Chords & Tabs

 

Cold Chisel Chords & Tabs

Version: 2 Type: Bass Tab 0 ratings
1 star 2 stars 3 stars 4 stars 5 stars
comments

Khe Sahn Bass Tab

G------------------------------|
D-----------------------54-----|
A--------3-33------5--5--------|
E-0-00----------3-3------------|

G------------------------------|
D-2-22-------------------------|
A--------3-33---5-50--5-56-----|
E------------------------------|
[ Tab from: http://www.guitartabs.cc/tabs/c/cold_chisel/khe_sahn_btab_ver_2.html ]
G------------------------------|
D------------------------------|
A--------3-33---------3-33-2---|
E-0-00----------3-33-----------|

1st time

G------------------------------|
D--------3-33------------------|
A-0-00----------5-50---5-50----|
E------------------------------|

2nd time

G------------------------------|
D------------------------------|
A-0-00---5-55------3-----------|
E---------------3-3----3-32----|
Comments