Cold Chisel - Cheap Wine Chords & Tabs

 

Cold Chisel Chords & Tabs

Version: 1 Type: Bass Tab 0 ratings
1 star 2 stars 3 stars 4 stars 5 stars
comments

Cheap Wine Bass Tab

COLD CHISEL - "Cheap Wine" - Bass
Tab

Common Time(4/4)
Standard Tuning(EADG)


VERSE 1 & 2:

|-----------------|-----------------|-----------------|---------|
|-----------------|-5-5-------5-----|-----------------|---------|
|-3-3-------3-----|-----7-5-r---7-5-|-1-1-------1-----|---------|
|-----5-3-r---5-3-|-----------------|-----3-1-r---3-1-|-4---3-1-|
  1 & 2 & 3 & 4 &   1 & 2 & 3 & 4 &   1 & 2 & 3 & 4 &   1 2 3 4

|---------|-----------|-----------|-----------|-----------------|
|---------|-----------|-----------|-----------|-----------------|
|---------|-----------|-----------|---------2-|-3-3-------3-----|
|-0-------|-1---1-1---|-3---3-3---|-3---5-----|-----5-3-r---5-3-|
  1 2 3 4   1 2 & 3 4   1 2 & 3 4   1 2 & 3 4   1 & 2 & 3 & 4 &

|-----------------|-3-3-------3-----|---------|---------|-----------|
|-5-5-------5-----|-----5-3-r---5-3-|-6---5-3-|-2-------|-3---3-3---|
|-----7-5-r---7-5-|-----------------|---------|---------|-----------|
|-----------------|-----------------|---------|---------|-----------|
  1 & 2 & 3 & 4 &   1 & 2 & 3 & 4 &   1 2 3 4   1 2 3 4   1 2 & 3 4

|-----------|-----------|
|-5---5-5---|-----------|
|-----------|---------2-|
|-----------|-3---5-----|
  1 2 & 3 4   1 2 & 3 4


CHORUS/END:
|-----------|-----------------|-----------|-------------|-----------|
|-----------|-5-5-------5-----|-----------|-------------|-----------|
|-3-3-3-----|-----7-5-r---7-5-|-1-1-1-----|-------------|-----------|
|-------5-3-|-----------------|-------3-1-|-4-4---4-3-1-|-3---3-3---|
  1 2 3 4 &   1 & 2 & 3 & 4 &   1 2 3 4 &   1 & 2 & 3 4   1 2 & 3 4


|-----------|-----------|-----------|
|-----------|-----------|-----------|
|-----------|-2---2-2---|---------2-|
|-5---5-5---|-----------|-3---5-----|
  1 2 & 3 4   1 2 & 3 4   1 2 & 3 4

[ Tab from: http://www.guitartabs.cc/tabs/c/cold_chisel/cheap_wine_btab.html ]
MIDDLE:
|-----------|---------4-|-2-------|-----5---4---|-9-----9h12-|
|-----------|-2---------|---------|-------------|------------|
|---------2-|-----------|---------|-------------|------------|
|-0---------|-----------|---------|-------------|------------|
  1 2 3 4 &   1 2 3 4 &   1 2 3 4   1 2 & 3 & 4   1 2 3 4 &


|---------4-|-2-------|-17---16---14-|-----------------|
|-----------|---------|--------------|-----------------|
|-----------|---------|--------------|-----------------|
|-0---------|---------|--------------|-1-1-1-1-1-1-1-1-|
  1 2 3 4 &   1 2 3 4   1  2 &  3 4    1 & 2 & 3 & 4 &


|-----------------|-----------------|-----------------|
|-----------------|-----------------|-----------------|
|-----------------|-1-1-1-1-1-1-1-1-|-----------------|
|-1-1-1-1-1-1-1-1-|-----------------|-1-1-1-1-1-1-1-1-|
  1 & 2 & 3 & 4 &   1 & 2 & 3 & 4 &   1 & 2 & 3 & 4 &


|-----------------|-----------------|-----------------|
|---------2-2-2-2-|-3-3-3-3---------|-5-5-5-5-5-5-5-5-|
|-3-3-3-3---------|---------5-5-5-5-|-----------------|
|-----------------|-----------------|-----------------|
  1 & 2 & 3 & 4 &   1 & 2 & 3 & 4 &   1 & 2 & 3 & 4 &


|------------------|-12-12-12-12-12-12-12-12-|-------------|
|-5-5-5-5-5-5-5/12-|-------------------------|-------------|
|------------------|-------------------------|-------------|
|------------------|-------------------------|-3-3-3-3-3-3-|
  1 & 2 & 3 & 4 &    1  &  2  &  3  &  4  &    1 2 & 3 4 &


VERSE 3:
|-----------------|-----------------|-----------------|---------|
|-----------------|-5-5-------5-----|-----------------|---------|
|-3-3-------3-----|-----7-5-r---7-5-|-1-1-------1-----|---------|
|-----5-3-r---5-3-|-----------------|-----3-1-r---3-1-|-4---3-1-|
  1 & 2 & 3 & 4 &   1 & 2 & 3 & 4 &   1 & 2 & 3 & 4 &   1 2 3 4


|---------|-----------|-----------|-----------|
|---------|-----------|-----------|-----------|
|---------|-----------|-----------|---------2-|
|-0-------|-1---1-1---|-3---3-3---|-3---5-----|
  1 2 3 4   1 2 & 3 4   1 2 & 3 4   1 2 & 3 4   


By: Johari Taylor
E-mail: viking@powerup.com.au


Comments