Cold - With My Mind Chords & Tabs

 

With My Mind Chords & Tabs

Cold Chords & Tabs

Version: 1 Type: Tab 0 ratings
1 star 2 stars 3 stars 4 stars 5 stars
comments

With My Mind Tab

   


          
      


      Artist - Cold
      Song - With My Mind
      Album - PsiOps Theme Song
      Tuning - 2 Steps Down, (low to high) C F Bb Eb G C
      Tabbed By - Nick (Cold13Spiders@yahoo.com)


      Intro/Chorus
        F5                       C5
      -----------------------------------------------------
      -----------------------------------------------------
      ---------------------------5--5-5-5-5--5-5-5-5--5-5--
      --3--3-3-3-3--3-3-3-3--3-3-5--5-5-5-5--5-5-5-5--5-5--
      --3--3-3-3-3--3-3-3-3--3-3-3--3-3-3-3--3-3-3-3--3-3--
      --1--1-1-1-1--1-1-1-1--1-1---------------------------
        d  u d u d  u d u d  d u d  u d u d  u d u d  d u

        C#5                      F5
      -------------------------------------------------------
      -------------------------------------------------------
      --6--6-6-6-6--6-6-6-6--6-6-----------------------------
      --6--6-6-6-6--6-6-6-6--6-6-3--3-x-x-3--3-x-x-3--3-x-x--
      --4--4-4-4-4--4-4-4-4--4-4-3--3-x-x-3--3-x-x-3--3-x-x--
      ---------------------------1--1-x-x-1--1-x-x-1--1-x-x--
        d  u d u d  u d u d  d u d  u d u d  u d u d  u d u

        F5                       C5
      -----------------------------------------------------
      -----------------------------------------------------
      ---------------------------5--5-5-5-5--5-5-5-5--5-5--
      --3--3-3-3-3--3-3-3-3--3-3-5--5-5-5-5--5-5-5-5--5-5--
      --3--3-3-3-3--3-3-3-3--3-3-3--3-3-3-3--3-3-3-3--3-3--
      --1--1-1-1-1--1-1-1-1--1-1---------------------------
        d  u d u d  u d u d  d u d  u d u d  u d u d  d u
[ Tab from: http://www.guitartabs.cc/tabs/c/cold/with_my_mind_tab.html ]
        C#5                      G#5             G5
      ---------------------------------------------------------
      ---------------------------------------------------------
      --6--6-6-6-6--6-6-6-6--6-6-------------------------------
      --6--6-6-6-6--6-6-6-6--6-6-6--6-6-6-6--6-6\5-5--5-5-5-5--
      --4--4-4-4-4--4-4-4-4--4-4-6--6-6-6-6--6-6\5-5--5-5-5-5--
      ---------------------------4--4-4-4-4--4-4\3-3--3-3-5-5--
        d  u d u d  u d u d  d u d  u d u d  u d   d  u d u d

      Verse
         (Guitar 1)
      -----8-----8h9p8-----8-----8h9p8--8-9h11p9--
      --8-----8---------8-----8-------------------
      --------------------------------------------
      --------------------------------------------
      --------------------------------------------
      --------------------------------------------

      Bridge Pt.1
         (Guitar 1)
      ---------------
      --8-9-8-9-8----
      ------------8--
      ---------------
      ---------------
      ---------------

         (Guitar 2)
      PALM MUTE ALL
        F5         C5 G5 G#5 F5         C5 G5 G#5
      -------------------------------------------
      -------------------------------------------
      -------------5--------------------5--------
      --3--3--3-3--5--5--6---3--3--3-3--5--5--6--
      --3--3--3-3--3--5--6---3--3--3-3--3--5--6--
      --1--1--1-1-----3--4---1--1--1-1-----3--4--
        d  d  d u  d  d  d   d  d  d u  d  d  d


      Bridge Pt.2
         (Both Guitars) 
      NO PALM MUTE
        F5         C5 G5 G#5
      ----------------------
      ----------------------
      -------------5--------
      --3--3--3-3--5--5--6--
      --3--3--3-3--3--5--6--
      --1--1--1-1-----3--4--
        d  d  d u  d  d  d


      Outro
         (Both Guitars)
        F5         C5 G5 G#5 F5        C5 G5 G#5
      ------------------------------------------
      ------------------------------------------
      -------------5-------------------5--------
      --3--3--3-3--5--5--6-\-3-3--3-3--5--5--6--
      --3--3--3-3--3--5--6-\-3-3--3-3--3--5--6--
      --1--1--1-1-----3--4-\-1-1--1-1-----3--4--
        d  d  d u  d  d  d   d d  d u  d  d  d



      Intro/Chorus - 1x
      Verse - 2x
      Intro/Chorus - 1x
      Verse - 2x
      Intro/Chorus - 1x
      Bridge Pt.1 - 2x
      Bridge Pt.2 - 8x
      Intro/Chorus - 2x
      Outro - 1x


  
Comments