Cold - Witch Chords & Tabs

 

Witch Chords & Tabs

Cold Chords & Tabs

Version: 3 Type: Tab 0 ratings
1 star 2 stars 3 stars 4 stars 5 stars
comments

Witch Tab

   
Witch
Straight C Tuning, tune down two whole steps

1=C   4=Bb
2=G   5=F
3=Eb  6=C

| -----------------------------------------------------------------------------15-------------|
| ---3---3---3---3---3---3---3---3-------3---3---3---3---3---3---3---3--------12--------------|
| -7---7---7---7---7---7---7---7-------7---7---7---7---7---7---7---7--------------13----------|
| ------------------------------------7-------------------------------------------------------|
| --------------------------------------------------------------------------------------------|
| --------------------------------------------------------------------------------------------|
  Intro Riff 1
[ Tab from: http://www.guitartabs.cc/tabs/c/cold/witch_tab_ver_3.html ]
| --------------------------------------|
| --------------------------------------|
| --------------------------------------|
| -5/7-7-7-5/7-7-7-5/7-7-7-8--8---------|
| -3/5-5-5-3/5-5-5-3/5-5-5-6--6---------|
| --------------------------------------|
  Intro Riff 2

| --------------------------------|
| --------------------------------|
| --------------------------------|
| -5-7-7-7---5-7-7-7---8-8--------|
| -3-5-5-5---3-5-5-5---6-6--------|
| --------------------------------|
  Verse  *hammer these chords, do not pick

| ---------------------------------------------------|
| ---------------------------------------------------|
| ---------------------------------------------------|
| ---------------------------------------------------|
| -5--5-5-5--5-5-5-5-5--6--6-6-6--6-6-6-6-6----------|
| -3--3-3-3--3-3-3-3-3--4--4-4-4--4-4-4-4-4----------|
  Chorus

| --15-15-15------------15-15-15------------17-17--------|
| -------------14-14-14------------14-14-14--------------|
| -------------------------------------------------------|
| -------------------------------------------------------|
| -------------------------------------------------------|
| -------------------------------------------------------|
  Bridge
Comments