Cold - Wasted Years Chords & Tabs

 

Wasted Years Chords & Tabs

Cold Chords & Tabs

Version: 2 Type: Tab 0 ratings
1 star 2 stars 3 stars 4 stars 5 stars
comments

Wasted Years Tab

   
I watched Cold play this song acoustic on 'Jay Leno'. So I'm sure this is the right way 
play the song.

Intro/verse
C--------------------------------------------------------------------------|
G--------------------------------------------------------------------------|
Eb-------------------------------------------------------------------------|
Bb-5/7--7-7-7-7h9--9-9-9-9/10-10-10-10--10-10-10-10--10-10-10-10--10-10----|
F--0-0--0-0-0-0-0--0-0-0-0--0--0--0--8---8--8--8--8---8--8--8--8---8--8----|
C--------------------------------------------------------------------------|

C--------------------------------------------------------------------------|
G--------------------------------------------------------------------------|
Eb-------------------------------------------------------------------------|
Bb--5/7--7-7-7-7h9--9-9-9-9/10-10-12-12--12-12-12-12--12-12-12-12--12-12---|
F---0-0--0-0-0-0-0--0-0-0-0--0--0-10-10--10-10-10-10--10-10-10-10--10-10---|
C--------------------------------------------------------------------------|


Chorus:

  D5                         D5/F
C---0--0-0-0-0--0-0-0-0--0-0-0--0-0-0-0--0-0-0-0--0-0---|
G---3--3-3-3-3--3-3-3-3--3-3-3--3-3-3-3--3-3-3-3--3-3---|
Eb--2--2-2-2-2--2-2-2-2--2-2-2--2-2-2-2--2-2-2-2--2-2---|
Bb--0--0-0-0-0--0-0-0-0--0-0-3--3-3-3-3--3-3-3-3--3-3---|
F-------------------------------------------------------|
C-------------------------------------------------------|

  C/G                        G
C---0--0-0-0-0--0-0-0-0--0-0-0--0-0-0-0--0-0-0-0--0-0--|
G---3--3-3-3-3--3-3-3-3--3-3-3--3-3-3-3--3-3-3-3--3-3--|
Eb--0--0-0-0-0--0-0-0-0--0-0-0--0-0-0-0--0-0-0-0--0-0--|
Bb--2--2-2-2-2--2-2-2-2--2-2-0--0-0-0-0--0-0-0-0--0-0--|
F---3--3-3-3-3--3-3-3-3--3-3-2--2-2-2-2--2-2-2-2--2-2--|
C----------------------------3--3-3-3-3--3-3-3-3--3-3--|

Solo:
C--------------------------------------------------------------|
G-------------------------------------13-13----12--------------|
Eb--7/9--9-9-9-9/10--10-10-10/12-12-12-------12----12-12-12\---|
Bb-------------------------------------------------------------|
F--------------------------------------------------------------|
C--------------------------------------------------------------|
[ Tab from: http://www.guitartabs.cc/tabs/c/cold/wasted_years_tab_ver_2.html ]
C--------------------------------------------|
G--------------------------------------------|
Eb--7/9--9-9-9-9/10--10-10-10/12--12-12/14---|
Bb-------------------------------------------|
F--------------------------------------------|
C--------------------------------------------|

C--------------------------------------------------|
G--------------------------------------------------|
Eb--12-12h14-14-14-14--14-14--14-14-14-14--14-14---|
Bb-------------------------------------------------|
F--------------------------------------------------|
C--------------------------------------------------|

C------------------------------------------|
G------------------------13-13-13-13p12----|
Eb--12h14-14-14-14--14-14------------------|
Bb-----------------------------------------|
F------------------------------------------|
C------------------------------------------|

C----------------------------------------------------|
G----------------------------------------------------|
Eb-12-12-12h14-14-14-14----14-14--14--14-14--14-14---|
Bb---------------------------------------------------|
F----------------------------------------------------|
C----------------------------------------------------|

C----------------------------------------------------------|
G--13p12---------------13p12---------------13--13-13h15\---|
Eb-------12--14p12--12-------12--14p12--12-----------------|
Bb---------------------------------------------------------|
F----------------------------------------------------------|
C----------------------------------------------------------|

C--9/10--10-12-12-12/13--13-13h15-13-12--8-8h10-8-7----|
G------------------------------------------------------|
Eb-----------------------------------------------------|
Bb-----------------------------------------------------|
F------------------------------------------------------|
C------------------------------------------------------|

Outro Riff
   D5
C------------0---------------0---------------0---------------0-----|
G--------3--------3-------3-------3-------3-------3--------3----3--|
Eb----------2---2---2-------2---2---2-------2---2---2----2---------|
Bb--0-0---------------0-0-------------0-0-------------0-0----------|
F------------------------------------------------------------------|
C------------------------------------------------------------------|
Comments