Cold - Wasted Years Chords & Tabs

 

Wasted Years Chords & Tabs

Cold Chords & Tabs

Version: 1 Type: Tab 0 ratings
1 star 2 stars 3 stars 4 stars 5 stars
comments

Wasted Years Tab

   
Artist : Cold
Song : Wasted Years
Album : Year of the Spider
Tuning : 2 steps down, C G Eb Bb F C
Tabbed by : Nick (CobraSting901@aol.com)

Intro/Verse
--------------------------
--------------------------
-2---2-4-5---2---2-4-5-7--
-0h2-2-4-5---0h2-2-4-5-7--
-0---0-2-3---0---0-2-3-5--
--------------------------


Chorus (chords version)
-------------
-------------
-7--9--5--4--
-7--9--5--4--
-5--7--3--2--
-------------

Chorus (picked version)   *both chorus' sound perfect, especially with 2 guitars*
-------0--------------0-------------0-------------0------
---------3--------------3-------------3-------------3----
---2-------2-------2------2-----2-------2-----2-------2--
-0---0-------0-------0------0-----0-------0-----0--------
----------------3-------------2--------------------------
--------------------------------------------3------------


Solo
------------------------------------------
--------------------------------------13--
-7/9--9-9--9/10--10-10--10/12--12-12------
------------------------------------------
------------------------------------------
------------------------------------------

--------------------------------------------
-13----12-----------------------------------
----12----12-12-12\--7/9--9-9--9/10--10-10--
--------------------------------------------
--------------------------------------------
--------------------------------------------

--------------------------------------------------
--------------------------------------------------
-10/12--12-12--12h14--12-12h14-14-14-14-14-14-14--
--------------------------------------------------
--------------------------------------------------
--------------------------------------------------
[ Tab from: http://www.guitartabs.cc/tabs/c/cold/wasted_years_tab.html ]
-------------------------------------------------
-------------------------------------------------
-14-14-14-14-14--12--14-14-14-14-14-14-14-14-14--
-------------------------------------------------
-------------------------------------------------
-------------------------------------------------

-------------------------------------------------
-------------------------------------------------
-14-14-14-14-14--12--14-14-14-14-14-14-14-14-14--
-------------------------------------------------
-------------------------------------------------
-------------------------------------------------

-------------------------------------------------
-----------13-13-13-13p12------------------------
-14-14-14------------------12-12-12h14-14-14-14--
-------------------------------------------------
-------------------------------------------------
-------------------------------------------------

-------------------------------------------------
--------------------13p12-----------------13p12--
-14-14-14-14-14-14---------12--14p12--12---------
-------------------------------------------------
-------------------------------------------------
-------------------------------------------------

---------------------------------
----------------13--13-13-13h15--
-12--14p12--12-------------------
---------------------------------
---------------------------------
---------------------------------


After Solo Riff 1
--9/10-10-12-12-12/13-13-13h15-13-12--7--7h8-7--5--3-3--
--------------------------------------------------------
--------------------------------------------------------
--------------------------------------------------------
--------------------------------------------------------
--------------------------------------------------------

Outro Riff 2
---------0---------------0---------------0---------------0----
-----3-------3-------3-------3-------3-------3-------3-----3--
-------2---2---2-------2---2---2-------2---2---2----2---------
-0-0-------------0-0-------------0-0-------------0-0----------
--------------------------------------------------------------
--------------------------------------------------------------
Comments