Cold - Ugly Chords & Tabs

 

Ugly Chords & Tabs

Cold Chords & Tabs

Version: 2 Type: Tab 0 ratings
1 star 2 stars 3 stars 4 stars 5 stars
comments

Ugly Tab

|---------------------------------------------
|---------------------------------------------
|------2----------2--------4-2--------2-------
|----2---2------2---2----2-----2----2---2-----
|-0--------0----------------------------------
|------------3----3---5----------2--------2---

|-------------------------------------------------------
|------3-----------3-----------3----------3------3------
|----2---2-------2---2-------2---2------2------2--------
|-0--------0-3----------3-2--------2-1------1-----------
|-0----------3------------2----------1------1-----------
|-0----------3------------2----------1------1-----------

|--------------------------------------
|--------------------------------------
|--------2--2-2----------5--5-5-5-5----
|-3--3-3-2--2-2-0-3--3-3-5--5-5-5-5---- 
|-3--3-3-0--0-0-0-3--3-3-3--3-3-4-5----
|-3--3-3--------0-3--3-3---------------
[ Tab from: http://www.guitartabs.cc/tabs/c/cold/ugly_tab_ver_2.html ]
|-----------------------------------------------------------------------------------------------
|-----------------------------------------------------------------------------------------------
|-----------------------------------------------------------------------------------------------
|-0--0-x-x-0--0-x-x-0--0-x-x-0-0-2-3--3-3-5-5-7--2--2-2-3-5-3--0--0-x-x-0--0-x-x-0--0-x-x-0-0-2-
|-0--0-x-x-0--0-x-x-0--0-x-x-0-0-2-3--3-3-3-3-3--2--2-2-2-2-2--0--0-x-x-0--0-x-x-0--0-x-x-0-0-2-
|-0--0-x-x-0--0-x-x-0--0-x-x-0-0-2-3--3-3-3-3-3--2--2-2-2-2-2--0--0-x-x-0--0-x-x-0--0-x-x-0-0-2-

|----------------------------------------------------------------------------
|----------------------------------------------------------------------------
|-------------------------------------3--3-3-3-3-3-3-3-3--2--2-2-2-2-2-2-2---
|-3--3-3-3-3-3-3-3--2--2-2-2-2-2-2-2--3--3-3-3-3-3-3-3-3--2--2-2-2-2-2-2-2---
|-3--3-3-3-3-3-3-3--2--2-2-2-2-2-2-2--1--1-1-1-1-1-1-1-1--0--0-0-0-0-0-0-0---
|-3--3-3-3-3-3-3-3--2--2-2-2-2-2-2-2-----------------------------------------
Comments