Cold - Ugly Chords & Tabs

 

Ugly Chords & Tabs

Cold Chords & Tabs

Version: 2 Type: Bass Tab 0 ratings
1 star 2 stars 3 stars 4 stars 5 stars
comments

Ugly Bass Tab

   
===================================================================
	Band:   Cold
	Song:   Ugly
	Album:  Cold
	Author: Obsidian (creatorofsong@hotmail.com)
	Tuning: C, F, Bb, Eb
	Notes:  Half the song you don't even play, for it's acoustic.
===================================================================
[ Tab from: http://www.guitartabs.cc/tabs/c/cold/ugly_btab_ver_2.html ]
Verse: Tacet
Chorus: Tacet

Bridge:
Eb|---------------|---------------|
Bb|---------------|---------------|
F |-3------2------|---------------|
C |---------------|-3-----2-------|

Finale:
Eb|---------------|---------------|
Bb|---------------|---------------|
F |-6-----5-------|---------------|
C |---------------|-6-----5-------|

End on Eb (C string, 3rd fret).
Comments