Cold - The Day Seattle Died Chords & Tabs

 

The Day Seattle Died Chords & Tabs

Cold Chords & Tabs

Version: 2 Type: Tab 0 ratings
1 star 2 stars 3 stars 4 stars 5 stars
comments

The Day Seattle Died Tab

   
Song: The Day Seattle Died
Artist: Cold
Album: Year of the Spider 
Tuning: (low to high) C F Bb Eb G C
[ Tab from: http://www.guitartabs.cc/tabs/c/cold/the_day_seattle_died_tab_ver_2.html ]
Intro/Verse clean (with reverb)                                  
|--------------------------------------------------------------|
|------------10-----------------10-10-10----8-8-8--------------|
|-7h9-9-9------9-9-9h10-----------------9----------7-----------|
|--------------------------------------------------------------|
|--------------------------------------------------------------|
|--------------------------------------------------------------|
 
|--------------------------------------------------------------|
|------------10-----------------10-10-10----8-8-8-8-12h13p12---|
|-7h9-9-9-------9-9-9h10-----------------9---------------------|
|--------------------------------------------------------------|
|--------------------------------------------------------------|
|--------------------------------------------------------------|

Pre-Chorus (distortion)
|-----------------------------|
|-10-10-10-----8-8-8----------|
|-------------9----------7----|
|-----------------------------|
|-----------------------------|
|-----------------------------|

Chorus (distortion)
|------------|
|------------|
|-7-11-------|
|-7-11--11-8-|
|-5--9--11-8-|
|-------9--6-|
Comments