Cold - Switch Chords & Tabs

 

Switch Chords & Tabs

Cold Chords & Tabs

Version: 2 Type: Tab 0 ratings
1 star 2 stars 3 stars 4 stars 5 stars
comments

Switch Tab

   
The Switch
Straight C Tuning, tune down two whole steps

1=C   4=Bb
2=G   5=F
3=Eb  6=C
[ Tab from: http://www.guitartabs.cc/tabs/c/cold/switch_tab_ver_2.html ]
| -------------------------------------------------------------------------------------- |     | ------- |
| -------------------------------------------------------------------------------------- |     | ------- |
| -11--11-11-11--11-11-11-11-11-11--13--13-13-13--13-13-13-13-13-13----- |    | ------------------------ |
| -11--11-11-11--11-11-11-11-11-11--13--13-13-13--13-13-13-13-13-13----- |    | -11--------------------- |
| --9---9---9--9----9--9--9---9--9---9--11--11-11-11--11-11-11-11-11-11----- |     | --x---------------- |
| -------------------------------------------------------------------------------------- |     | --9---- |
  Intro (Scooter) to the rigth is Kelly's part, strum with dist.

| --------------------------------- |
| --------------------------------- |
| --------------------------------- |
| -11------9------7-----6---------- |
| --9------7------5-----4---------- |
| --------------------------------- |
  Pre-Chorus

| ------------------------------------------- |
| ------------------------------------------- |
| ------------------------------------------- |
| -7-7-7-7--6-6-6-6-------------------------- |
| -5-5-5-5--4-4-4-4--5-5--6-6--7-7----------- |
| ----------------------3-3--4-4--5-5-------- |
  Chorus
Comments