Cold - Suffocate Chords & Tabs

 

Suffocate Chords & Tabs

Cold Chords & Tabs

Version: 1 Type: Tab 0 ratings
1 star 2 stars 3 stars 4 stars 5 stars
comments

Suffocate Tab

   
-------------------------------------------------------------------------------
			     SUFFOCATE - Cold
-------------------------------------------------------------------------------

Tabbed by:Earthwar7
Email:www.austin715@AOL.com

Tuning:Drop D
[ Tab from: http://www.guitartabs.cc/tabs/c/cold/suffocate_tab.html ]
e|-----------------------|-----------------------|-----------------------|
B|-----------------------|-----------------------|-----------------------|
G|-----------------------|-----------------------|-----------------------|
D|---------4-4---4-------|---------2-2---2-------|---------2-2---2-------|
A|-----4-4-----4---4-4---|-0-0-2-2-----2---2-2---|-----2-2-----2---2-2---|
D|-4-4-------------------|-----------------------|-2-2-------------------|

e|---------------------|
B|---------------------|
G|---------------------|
D|---------4-4---4-6h--|   This is the intro to this song. I hope to have more
A|-----4-4-----4-------|   of this song soon. Later 4 now.
D|-4-4-----------------|



| /  slide up
| \  slide down
| h  hammer-on
| p  pull-off
| ~  vibrato
| +  harmonic
| x  Mute note

===============================================================================
Comments