Cold - Suffocate Chords & Tabs

 

Suffocate Chords & Tabs

Cold Chords & Tabs

Version: 2 Type: Bass Tab 0 ratings
1 star 2 stars 3 stars 4 stars 5 stars
comments

Suffocate Bass Tab

Band: Cold
Song: Suffocate
Album: Year of the Spider
Tabber: Andrew (justanotherface_@msn.com)

Tuning (low to high): Standard BEADG


Intro/Verse (Start at 0:10):
G|-------------------------------------------------------------------|
D|-------------------------------------------------------------------|
A|-------------------------------------------------------------------|
E|-1--X-XX-1--X-XX-4--X-XX-4--4-/0-----------------1--X-XX-1--X-XX-1-|
B|---------------------------------4--X-XX-4--X-XX-------------------|

[ Tab from: http://www.guitartabs.cc/tabs/c/cold/suffocate_btab_ver_2.html ]
Chorus:
G|--------------------------------------------------------------|
D|--------------------------------------------------------------|
A|--------------------------------------------------------------|
E|-4--4444-4--4444-----------------1--1111-1--1111-8--6--8------|
B|-----------------4--4444-4--4444--------------------------6---|


Interlude:
G|--------------------------|
D|--------------------------|
A|--------------------------|
E|------6----4----4----4----|
B|-1------------------------|


Outro:
G|----------------------------|
D|----------------------------|
A|----------------------------|
E|-4-----------------1--------|
B|----------4-----------------|
Comments