Cold - Stupid Girl Chords & Tabs

 

Stupid Girl Chords & Tabs

Cold Chords & Tabs

Version: 6 Type: Tab 0 ratings
1 star 2 stars 3 stars 4 stars 5 stars
comments

Stupid Girl Tab

Hey all you guitar people who have attempted to write this
 freakin song, your submissions sucked. sorry the truth hurts. but i got sick of
reading tabs on this song that were way wrong. there were parts written that were
to different songs! its crazy. so i tabbed it out myself. i have even put the
lyrics to it so u can sing along like those barney tapes i kno u watch. ur welcome.

played in C-G-C-F-A-D tuning, if you dont wanna mess ur strings up just do drop D,
if you dont wanna do either, it'll sound like crap and i'll laugh at you.

Intro
------------------------------------------------------------
------------------------------------------------------------
------------------------------------------------------------
---5-5----5-5----5-5----5-5-5-4-4-----4-4---4-4---4-4-4-2-2-
------------------------------------------------------------
-0------0------0------0-------------0-----0------0----------

----------------------------------------------------
----------------------------------------------------
----------------------------------------------------
----2-2----2-2-----2-2-2-0-0----0-0--0-0--0-0--0-0--
----------------------------------------------------
-0-------0------0-------------0-----0----0----0-----   1x

------------------------------
------------------------------
------------------------------
-0-0-0--0-0-0--2-2-2--3-3-3---
-0-0-0--0-0-0--2-2-2--3-3-3---
-0-0-0--0-0-0--2-2-2--3-3-3---


------------------------------
------------------------------
------------------------------
-0-0-0--0-0-0--8-8-8--7-7-7---
-0-0-0--0-0-0--8-8-8--7-7-7---
-0-0-0--0-0-0--8-8-8--7-7-7---  

Tight Riff (verse)
Verse 1 (pm)

------------------------------
------------------------------
------------------------------
-0-0-0--0-0-0--2-2-2--3-3-3---
-0-0-0--0-0-0--2-2-2--3-3-3---
-0-0-0--0-0-0--2-2-2--3-3-3---
Wanna love ya  Wanna bug ya
Wanna touch ya Wanna take ya
------------------------------
------------------------------
------------------------------
-0-0-0--0-0-0--8-8-8--7-7-7---
-0-0-0--0-0-0--8-8-8--7-7-7---
-0-0-0--0-0-0--8-8-8--7-7-7---  2x
Wanna squueze ya Stupid girl
Wanna shut ya    Stupid girl

Pre-Chorus
(pm)

---------------------------------|
|--------------------------------|
|--0--0--0--0--0--3--0--0--0--0--|
|--0--0--0--0--0--3--0--0--0--0--|
|--0--0--0--0--0--3--0--0--0--0--|
   I ------cant 

|--------------------------------|
|--------------------------------|
|--0--0--0--0--0--3--0--0--0--0--|
|--0--0--0--0--0--3--0--0--0--0--|
|--0--0--0--0--0--3--0--0--0--0--|
   take --------this

|--------------------------------------------|
|--------------------------------------------|
|--------------------------------------------|
|--0--3--0--0--0--0--0--0--8--8--8--7--7--7--|
|--0--3--0--0--0--0--0--0--8--8--8--7--7--7--|
|--0--3--0--0--0--0--0--0--8--8--8--7--7--7--|
   born -----to           break ----this



Chorus

|---------------------------|
|---------------------------|
|*--------------------------|
|*--5--5--5--5--5--5--5--5--|
|---5--5--5--5--5--5--5--5--|
|---5--5--5--5--5--5--5--5--|
         shes going  

                                                      
--------------------------|--------------------------|
--------------------------|--------------------------|
--------------------------|--------------------------|
--5--5--5--5--9--9--9--9--|--9--9--9--9--9--9--9--9--|
--5--5--5--5--9--9--9--9--|--9--9--9--9--9--9--9--9--|
--5--5--5--5--9--9--9--9--|--9--9--9--9--9--9--9--9--|
          a  - way		shes going   a -

                                                      
--------------------------|--------------------------|
--------------------------|--------------------------|
--------------------------|--------------------------|
--2--2--2--2--2--2--2--2--|--2--2--2--2--0--0--0--0--|
--2--2--2--2--2--2--2--2--|--2--2--2--2--0--0--0--0--|
--2--2--2--2--2--2--2--2--|--2--2--2--2--0--0--0--0--|
   way         whats      wrong with my   life
                                                        
---------------------------|
---------------------------|
--------------------------*|
--0--0--0--0--0--0--0--0--*|
--0--0--0--0--0--0--0--0---|
--0--0--0--0--0--0--0--0---| 2x
   today
[ Tab from: http://www.guitartabs.cc/tabs/c/cold/stupid_girl_tab_ver_6.html ]
------------------------------
------------------------------
------------------------------
-0-0-0--0-0-0--2-2-2--3-3-3---
-0-0-0--0-0-0--2-2-2--3-3-3---
-0-0-0--0-0-0--2-2-2--3-3-3---
               stupid girl
------------------------------
------------------------------
------------------------------
-0-0-0--0-0-0--8-8-8--7-7-7---
-0-0-0--0-0-0--8-8-8--7-7-7---
-0-0-0--0-0-0--8-8-8--7-7-7---
               stupid girl

Tight verse
------------------------------
------------------------------
------------------------------
-0-0-0--0-0-0--2-2-2--3-3-3---
-0-0-0--0-0-0--2-2-2--3-3-3---
-0-0-0--0-0-0--2-2-2--3-3-3---
I'm a loner    I'm a loser
I'm a bad one  I'm a good one
------------------------------
------------------------------
------------------------------
-0-0-0--0-0-0--8-8-8--7-7-7---
-0-0-0--0-0-0--8-8-8--7-7-7---
-0-0-0--0-0-0--8-8-8--7-7-7---  2x
I'm a winner   In my mind
I'm a sick one With a smile

Pre-Chorus
(pm)

---------------------------------|
|--------------------------------|
|--0--0--0--0--0--3--0--0--0--0--|
|--0--0--0--0--0--3--0--0--0--0--|
|--0--0--0--0--0--3--0--0--0--0--|
   I cant 

|--------------------------------|
|--------------------------------|
|--0--0--0--0--0--3--0--0--0--0--|
|--0--0--0--0--0--3--0--0--0--0--|
|--0--0--0--0--0--3--0--0--0--0--|
   take this

|--------------------------------------------|
|--------------------------------------------|
|--------------------------------------------|
|--0--3--0--0--0--0--0--0--8--8--8--7--7--7--|
|--0--3--0--0--0--0--0--0--8--8--8--7--7--7--|
|--0--3--0--0--0--0--0--0--8--8--8--7--7--7--|
   born to                 break this



Chorus

|---------------------------|
|---------------------------|
|*--------------------------|
|*--5--5--5--5--5--5--5--5--|
|---5--5--5--5--5--5--5--5--|
|---5--5--5--5--5--5--5--5--|
         shes going  

                                                      
--------------------------|--------------------------|
--------------------------|--------------------------|
--------------------------|--------------------------|
--5--5--5--5--9--9--9--9--|--9--9--9--9--9--9--9--9--|
--5--5--5--5--9--9--9--9--|--9--9--9--9--9--9--9--9--|
--5--5--5--5--9--9--9--9--|--9--9--9--9--9--9--9--9--|
          a  - way		shes going   a -

                                                      
--------------------------|--------------------------|
--------------------------|--------------------------|
--------------------------|--------------------------|
--2--2--2--2--2--2--2--2--|--2--2--2--2--0--0--0--0--|
--2--2--2--2--2--2--2--2--|--2--2--2--2--0--0--0--0--|
--2--2--2--2--2--2--2--2--|--2--2--2--2--0--0--0--0--|
   way         whats      wrong with my   life
                                                        
---------------------------|
---------------------------|
--------------------------*|
--0--0--0--0--0--0--0--0--*|
--0--0--0--0--0--0--0--0---|
--0--0--0--0--0--0--0--0---| 2x
   today
------------------------------
------------------------------
------------------------------
-0-0-0--0-0-0--2-2-2--3-3-3---
-0-0-0--0-0-0--2-2-2--3-3-3---
-0-0-0--0-0-0--2-2-2--3-3-3---
               stupid girl
------------------------------
------------------------------
------------------------------
-0-0-0--0-0-0--8-8-8--7-7-7---
-0-0-0--0-0-0--8-8-8--7-7-7---
-0-0-0--0-0-0--8-8-8--7-7-7---
               stupid girl


Bridge
1x clean 2x dis
--------------------------------------------------------------
--------------------------------------------------------------
-7--7-7-7-7--9-9-9-10-10-10-------------------9-9-9-10-10-10--
-7--7-7-7-7--9-9-9-10-10-10--10--10-10-10-10--9-9-9-10-10-10--
-5--5-5-5-5--7-7-7 8--8--8---10--10-10-10-10--7-7-7-8--8--8---
-----------------------------10--10-10-10-10------------------
             stupid girl                        stupid girl
oh           oh   oh          ooo             oh     oh
---------------------------------------------------------------
---------------------------------------------------------------
-------------9-9-9-10-10-10-----------------9-9-9-10-10-10-----
-8--8-8-8-8--9-9-9-10-10-10---7--7-7-7-7----9-9-9-10-10-10-----
-8--8-8-8-8--7-7-7-8--8--8----7--7-7-7-7----7-7-7-8--8--8------
-8--8-8-8-8-------------------7--7-7-7-7----------------------- 
              stupid girl                    stupid girl        1x
 ooo           oh oh           oh            whooa              2x

(chorus)
its all in order and its right unlike the other tabs....so if it doesnt sound
like it...its ur fault. have a nice day

Jose H. Cuervo
Comments