Cold - Stupid Girl Chords & Tabs

 

Stupid Girl Chords & Tabs

Cold Chords & Tabs

Version: 3 Type: Tab 0 ratings
1 star 2 stars 3 stars 4 stars 5 stars
comments

Stupid Girl Tab

   
Song:Stupid Girl
Artist:Cold
Tuneing:C G C F A D  drop 2 A D then 2 steps down.
Submiter:Mark
 
AWSOME SONG!

Intro
------------------------------------------------------------
------------------------------------------------------------
------------------------------------------------------------
---5-5----5-5----5-5----5-5-5-4-4-----4-4---4-4---4-4-4-2-2-
------------------------------------------------------------
-0------0------0------0-------------0-----0------0----------

----------------------------------------------------
----------------------------------------------------
----------------------------------------------------
----2-2----2-2-----2-2-2-0-0----0-0--0-0--0-0--0-0--
----------------------------------------------------
-0-------0------0-------------0-----0----0----0-----


Main Riff
Guitar 1

---10---------10----------12----------13---------
-------10-10-----10-10-------10-10-------10-10---
-------------------------------------------------
-------------------------------------------------
-------------------------------------------------
-------------------------------------------------

--10---------10---------12---------10--------
------10-10-----10-10-------10-10-----10-10--
---------------------------------------------
---------------------------------------------
---------------------------------------------
---------------------------------------------

Guitar 2

------------------------------
------------------------------
------------------------------
-0-0-0--0-0-0--2-2-2--3-3-3---
-0-0-0--0-0-0--2-2-2--3-3-3---
-0-0-0--0-0-0--2-2-2--3-3-3---

------------------------------
------------------------------
------------------------------
-0-0-0--0-0-0--8-8-8--7-7-7---
-0-0-0--0-0-0--8-8-8--7-7-7---
-0-0-0--0-0-0--8-8-8--7-7-7---


Bass plays the main riff on the first verse

Pre-Chorus “I can’t take this…..”

Guitar 2
p.m.      .........
--------------------------
--------------------------
--------------------------
--------------------------
-0--1--3--0-0-0-0-0-------
-0--1--3--0-0-0-0-0-------

Guitar 1

--10---------12------------
------10-10-----10-10------
---------------------------
---------------------------
---------------------------
---------------------------


Chorus
[ Tab from: http://www.guitartabs.cc/tabs/c/cold/stupid_girl_tab_ver_3.html ]
Guitar 1
--3------5------3------5-------2-------5------2-------5-------
----3-3----3-3----3-3----3-3------2-2----2-2-----2-2-----2-2--
--------------------------------------------------------------
--------------------------------------------------------------
--------------------------------------------------------------
--------------------------------------------------------------

-0-------3------0-------3--------3-------5-------7-5-3-2-3-2-
----0-0----0-0----0-0------0-0------3-3----3-3---------------
-------------------------------------------------------------
-------------------------------------------------------------
-------------------------------------------------------------
-------------------------------------------------------------

Guitar 2

---------------------------------------------------
---------------------------------------------------
---------------------------------------------------
-5-5-5-5-5-5-5-5-5-5-5-5-9-9-9-9-9-9-9-9-9-9-9-9---
-5-5-5-5-5-5-5-5-5-5-5-5-9-9-9-9-9-9-9-9-9-9-9-9---
-5-5-5-5-5-5-5-5-5-5-5-5-9-9-9-9-9-9-9-9-9-9-9-9---

--------------------------------------------------
--------------------------------------------------
--------------------------------------------------
-2-2-2-2-2-2-2-2-2-2-2-2-0-0-0-0-0-0-0-0-0-0-0-0--
-2-2-2-2-2-2-2-2-2-2-2-2-0-0-0-0-0-0-0-0-0-0-0-0--
-2-2-2-2-2-2-2-2-2-2-2-2-0-0-0-0-0-0-0-0-0-0-0-0—

2nd Verse is just the main riff palm muted

Bridge Acustic Part

--------------------------------------------------------------
--------------------------------------------------------------
-7--7-7-7-7--9-9-9-10-10-10-------------------9-9-9-10-10-10--
-7--7-7-7-7--9-9-9-10-10-10--10--10-10-10-10--9-9-9-10-10-10--
-5--5-5-5-5--7-7-7 8--8--8---10--10-10-10-10--7-7-7-8--8--8---
-----------------------------10--10-10-10-10------------------

---------------------------------------------------------------
---------------------------------------------------------------
-------------9-9-9-10-10-10-----------------9-9-9-10-10-10-----
-8--8-8-8-8--9-9-9-10-10-10---7--7-7-7-7----9-9-9-10-10-10-----
-8--8-8-8-8--7-7-7-8--8--8----7--7-7-7-7----7-7-7-8--8--8------
-8--8-8-8-8-------------------7--7-7-7-7-----------------------

Ok thats it, not 2 hard, Any Coments or corections send me and email at,
SkeaminSkater@aol.com. There migt be some stuff worng but im only 13
Comments