Cold - Stupid Girl Chords & Tabs

 

Stupid Girl Chords & Tabs

Cold Chords & Tabs

Version: 2 Type: Tab 0 ratings
1 star 2 stars 3 stars 4 stars 5 stars
comments

Stupid Girl Tab

   
#----------------------------------PLEASE NOTE---------------------------------#
#This file is the author's own work and represents their interpretation of the #
#song. You may only use this file for private study, scholarship, or research. #
#------------------------------------------------------------------------------##


Gtr I (E A D G B E) - 'COld - Stupid Girl'

 4/4
  Gtr I  Verse
|----------------------------------------------------|
|----------------------------------------------------|
|-5-5-5-5-5-5-7-7-7-8-8-8-5-5-5-5-5-5----------------|
|-5-5-5-5-5-5-7-7-7-8-8-8-5-5-5-5-5-5-6-6-6-5-5-5----|
|-3-3-3-3-3-3-5-5-5-6-6-6-3-3-3-3-3-3-6-6-6-5-5-5----|
|-------------------------------------4-4-4-3-3-3----|

      Chorus
|---------------------------------------------------------------------|
|---------------------------------------------------------------------|
|-------------------------------------------------7-7-7-7-7-7-7-7-7---|
|-3-3-3-3-3-3-3-3-3-3-3-3-7-7-7-7-7-7-7-7-7-7-7-7-7-7-7-7-7-7-7-7-7---|
|-3-3-3-3-3-3-3-3-3-3-3-3-7-7-7-7-7-7-7-7-7-7-7-7-5-5-5-5-5-5-5-5-5---|
|-1-1-1-1-1-1-1-1-1-1-1-1-5-5-5-5-5-5-5-5-5-5-5-5---------------------|

[ Tab from: http://www.guitartabs.cc/tabs/c/cold/stupid_girl_tab_ver_2.html ]
|----------------------------------|
|----------------------------------|
|-7-7-7-5-5-5-5-5-5-5-5-5-5-5-5----|
|-7-7-7-5-5-5-5-5-5-5-5-5-5-5-5----|
|-5-7-5-3-3-3-3-3-3-3-3-3-3-3-3----|
|----------------------------------|

     Break
|----------------------------------------------------|
|----------------------------------------------------|
|-5-5-5-5-5-5-7-7-7-8-8-8-5-5-5-5-5-5----------------|
|-5-5-5-5-5-5-7-7-7-8-8-8-5-5-5-5-5-5-6-6-6-5-5-5----|
|-3-3-3-3-3-3-5-5-5-6-6-6-3-3-3-3-3-3-6-6-6-5-5-5----|
|-------------------------------------4-4-4-3-3-3----|

   Acoustic Part - Bridge
|-----------------------------------------------------------------|
|-----------------------------------------------------------------|
|-5-5-5-5-5-5--7-7-7-8-8-8-------------7-7-7-8-8-8----------------|
|-5-5-5-5-5-5--7-7-7-8-8-8-8-8-8-8-8-8-7-7-7-8-8-8-6-6-6-6-6-6----|
|-3-3-3-3-3-3--5-5-5-6-6-6-8-8-8-8-8-8-5-5-5-6-6-6-6-6-6-6-6-6----|
|--------------------------6-6-6-6-6-6-------------4-4-4-4-4-4----|


|----------------------------------------|
|----------------------------------------|
|-7-7-7-8-8-8-5-5-5-5-5-5-8-8-8-8-8-8----|
|-7-7-7-8-8-8-5-5-5-5-5-5-8-8-8-8-8-8----|
|-5-5-5-6-6-6-3-3-3-3-3-3-6-6-6-6-6-6----|
|----------------------------------------|



***************************************************************************************
* Generated using Power Tab Editor by Brad Larsen - http://powertab.guitarnetwork.org *
***************************************************************************************
Comments