Cold - Stupid Girl Chords & Tabs

 

Stupid Girl Chords & Tabs

Cold Chords & Tabs

Version: 1 Type: Tab 0 ratings
1 star 2 stars 3 stars 4 stars 5 stars
comments

Stupid Girl Tab

   
#----------------------------------PLEASE NOTE---------------------------------#
#This file is the author's own work and represents their interpretation of the #
#song. You may only use this file for private study, scholarship, or research. #
#------------------------------------------------------------------------------#


Gtr I (E A D G B E) - 'Cold - Stupid Girl'

 Q=107 This is COld's awesome new single off Year of the Spider
 4/4     
 I know they tune down 2 whole steps (C,F,Bb,E,G,C) but this lead part can be
played like this and sound right.
           
   Gtr I  Intro,Some Verse,
|--8-----10-----11------8-----10-----11--------|
|----8------8------8------8------8------8------|
|------8------8------8------8------8------8----|
|----------------------------------------------|
|----------------------------------------------|
|----------------------------------------------|
[ Tab from: http://www.guitartabs.cc/tabs/c/cold/stupid_girl_tab.html ]
Chorus 
|-------------------------------------------------------------------------------------------------|
|-------------------------------------------------------------------------------------------------|
|10-10-10-12-10-10-10-10-10-12-10-10-9-9-9-12-9-9-9-9-9-12-9-9-------------12----------------12---|
|-----------------------------------------------------------------12-12-12----12-12-12-12-12----12|
|-------------------------------------------------------------------------------------------------|
|-------------------------------------------------------------------------------------------------|


|-|
|-|
|-|
|-|
|-|
|-|


|-------------------------------------------|
|-------------------------------------------|
|--------------12-------10-12-10-9-10-12----|
|-12--10-10-10----10-10---------------------|
|-------------------------------------------|
|-------------------------------------------|



***************************************************************************************
* Generated using Power Tab Editor by Brad Larsen - http://powertab.guitarnetwork.org *
***************************************************************************************
Comments