Cold - Stupid Girl Chords & Tabs

 

Stupid Girl Chords & Tabs

Cold Chords & Tabs

Version: 4 Type: Bass Tab 0 ratings
1 star 2 stars 3 stars 4 stars 5 stars
comments

Stupid Girl Bass Tab

   
=============================COLD=STUPID GIRL================================
==================ALBUM:YEAR OF THE SPIDER===TUNING:CFCG====================
Questions or comments? E-mail me at bassgenious@aol.com
Other tabs by me: MxPx-Kings Of Hollywood (Intro)

Okay...this is my first full length tab, HOWEVER, I am completely 100% sure that
this is correct. There isn't a fault in it. The song uses 1/4,1/8,and 1/16 notes.
You should be able to tell whats what, but heres a key anyway:
0--0 is quarter notes,0-0 is eighth notes, and 00 is sixteenth notes. The bass
line starts on a quarter rest. Here it goes! 

G||  |  |  |  |----------------|---------------|
C||  |  |  |  |----------------|---------------|
F||  |  |  |  |----------------|---------------|
C||  |  |  |  |----0-0-0-0-0-0-|0-0-0-0-0-0-0-0|

G|----------------|----------------|
C|0--0-0000-0-2-22|22-3-3-3-0--0-00|
F|----------------|----------------|
C|----------------|----------------|

G|------------------|
C|00-0--------------|
F|-----1-1111-0-00-0|
C|------------------|

G|----------------|----------------|------------------|  (X2)
C|0--0-0000-0-2-22|22-3-3-3-0--0-00|00-0--------------|
F|----------------|----------------|-----1-1111-0-00-0|
C|----------------|----------------|------------------|

G|----------------|----------------|
C|0--0-0000-0-2-22|22-3-3-3-0--0-00|
F|----------------|----------------|
C|----------------|----------------|

G|------------------|----------------|
C|00-0--------------|0--0-0000-0-2-22|
F|-----1-1111-0-00-0|----------------|
C|------------------|----------------|

G|----------------|------------------|
C|22-3-3-3-0--0-00|00-0--------------|
F|----------------|-----1-1111-0-00-0|
C|----------------|------------------|

G|---------------|---------------|---------------|---------------|the next 
C|---------------|---------------|---------------|---------------|line below
F|---------------|--------2-2-2-2|2-2-2-2-2-2-2-2|---------------|this is 
C|5-5-5-5-5-5-5-5|5-5-5-5--------|---------------|2-2-2-2-2-2-2-2|part of 
  (CONTINUED LINE)                            the same section,so play the 
G|---------------|---------------|  (X2)       two lines together,twice
C|---------------|---------------|       
F|---------------|---------------|      
C|2-2-2-2-0-0-0-0|0-0-0-0-0-0-0-0|

G|--------------|--------------|---------------|
C|--------------|--------------|---------------|
F|--------------|--------------|----1-1-1-0-0-0|
C|0--0-0-0-0-2-2|2-3-3-3-0--0-0|0-0------------|

G|----------------|----------------|------------------|  (X2)
C|0--0-0000-0-2-22|22-3-3-3-0--0-00|00-0--------------|
F|----------------|----------------|-----1-1111-0-00-0|
C|----------------|----------------|------------------|

G|----------------|
C|0--0-0000-0-2-22|
F|----------------|
C|----------------|
[ Tab from: http://www.guitartabs.cc/tabs/c/cold/stupid_girl_btab_ver_4.html ]
G|----------------|------------------|
C|22-3-3-3-0--0-00|00-0--------------|
F|----------------|-----1-1111-0-00-0|
C|----------------|------------------|

G|----------------|----------------|
C|0--0-0000-0-2-22|22-3-3-3-0--0-00|
F|----------------|----------------|
C|----------------|----------------|

G|------------------|
C|00-0--------------|
F|-----1-1111-0-00-0|
C|------------------|

G|---------------|---------------|---------------|---------------|
C|---------------|---------------|---------------|---------------|
F|---------------|--------2-2-2-2|2-2-2-2-2-2-2-2|---------------|
C|5-5-5-5-5-5-5-5|5-5-5-5--------|---------------|2-2-2-2-2-2-2-2|
  (CONTINUED LINE)
G|---------------|---------------|  (X2)
C|---------------|---------------|
F|---------------|---------------|
C|2-2-2-2-0-0-0-0|0-0-0-0-0-0-0-0|

G|---------------|---------------|---------------|---------------|
C|---------------|---------------|---------------|---------------|
F|---------------|--------2-2-2-2|2-2-2-2-2-2-2-2|---------------|
C|5-5-5-5-5-5-5-5|5-5-5-5--------|---------------|2-2-2-2-2-2-2-2|

G|---------------|---------------|  |  |  |  |  |  |
C|---------------|---------------|  |  |  |  |  |  |
F|---------------|---------------|  |  |  |  |  |  |
C|2-2-2-2-0-0-0-0|0-0-0-0-0-0-0-0|  |  |  |  |  |  |

G|--------------|--------------|---------------|--------------|
C|0--0-0-0-0-2-2|2-3-3-3-------|----2-2-2-3-3-3|-----------2-2|
F|--------------|--------3--3-3|3-3------------|1--1-1-1-1----|
C|--------------|--------------|---------------|--------------|
  (CONTINUED LINE)
G|--------------|---------------|  (X2)
C|2-3-3-3-------|----2-2-2-3-3-3|
F|--------0--0-0|0-0------------|
C|--------------|---------------|

G|---------------|---------------|---------------|---------------|
C|---------------|---------------|---------------|---------------|
F|---------------|--------2-2-2-2|2-2-2-2-2-2-2-2|---------------|
C|5-5-5-5-5-5-5-5|5-5-5-5--------|---------------|2-2-2-2-2-2-2-2|
  (CONTINUED LINE)
G|---------------|---------------|  (X2)
C|---------------|---------------|
F|---------------|---------------|
C|2-2-2-2-0-0-0-0|0-0-0-0-0-0-0-0|

G|---------------|---------------|---------------|
C|---------------|---------------|---------------|
F|---------------|--------2-2-2-2|2-2-2-2-2-2-2-2|
C|5-5-5-5-5-5-5-5|5-5-5-5--------|---------------|

G|---------------|---------------|---------------|
C|---------------|---------------|---------------|
F|---------------|---------------|---------------|
C|2-2-2-2-2-2-2-2|2-2-2-2-0-0-0-0|0-0-0-0-0-0-0-0|

G|--------------|--------------|---------------|  (X2)
C|--------------|--------------|---------------|
F|--------------|--------------|----1-1-1-0-0-0|
C|0--0-0-0-0-2-2|2-3-3-3-0--0-0|0-0------------|

G|  ||
C|  ||
F|  ||
C|  ||

Right, so that's it. Like I said before, this is perfect. If you think another
version of this tab is better, you thought wrong. Sorry to be so obnoxious about
it, but it's true. Now, get off your butt and go try it!
Comments