Cold - Strip Her Down Chords & Tabs

 

Strip Her Down Chords & Tabs

Cold Chords & Tabs

Version: 1 Type: Bass Tab 0 ratings
1 star 2 stars 3 stars 4 stars 5 stars
comments

Strip Her Down Bass Tab

   
===================================================================
	Band:   Cold
	Song:   Strip Her Down
	Album:  Cold
	Author: Obsidian (creatorofsong@hotmail.com)
	Tuning: C, F, Bb, Eb
	Date:   September 28, 2001
	Notes:  This song is more complex than I indicate. :\
===================================================================

First Verse: Tacet

First Chorus:
Eb|------------------|------------------|------------------|------------------|
Bb|------------------|------------------|------------------|------------------|
F |-7----------------|-5----------------|-3----------------|-3-----------3-5--|
C |------------------|------------------|------------------|------------------|

Verse:
[ Tab from: http://www.guitartabs.cc/tabs/c/cold/strip_her_down_btab.html ]
Eb|------------------|------------------|------------------|------------------|
Bb|------------------|------------------|------------------|------------------|
F |------------------|------------------|------------------|------------------|
C |-3----------------|-2----------------|-1----------------|-0--------%0-1-2--|
(% Pick up here, and don't play before skipping to prechorus)

PreChorus:
Eb ------------------|-------7----------|-------5-2--0------|------------------|
Bb|------------------|-----7------------|-----5-------0--45-|------------------|
F |-7--------7--7----|-5----------5-----|-3--3--------------|------------------|
C |------7--------7--|------------------|-------------------|--3-------(-3-2-)-|
(I add that in parentheses for style purposes)

Repeat chorus twice

Transition: "Strip...take it off..."
Eb|------------------|
Bb|------------------|
F |-------------2-1--|
C |-0--2--1----------|
(Repeat 4x)

Repeat chorus twice
Repeat Verse until end...and hold the final low C (C - Open)
Comments