Cold - Something Wicked This Way Comes Chords & Tabs

 

Something Wicked This Way Comes Chords & Tabs

Cold Chords & Tabs

Version: 2 Type: Tab 0 ratings
1 star 2 stars 3 stars 4 stars 5 stars
comments

Something Wicked This Way Comes Tab

   
Something Wicked This Way Comes
Straight C Tuning, tune down two whole steps

1=C#   4=B
2=G#   5=F#
3=E  6=C#

| ----------------------------------------------------------|
| ----------------------------------------------------------|
| ------------11-----------------------------11-------------|
| ----10-11-----11-10--11-10----10-11------10-11------------|
| -9------------------------------9-------------------------|
| ----------------------------------------------------------|
  Intro  gtr. 1
[ Tab from: http://www.guitartabs.cc/tabs/c/cold/something_wicked_this_way_comes_tab_ver_2.html ]
| ----------------------------------|
| -14-----14-----13-----13----------|
| -----13-----13-----13-----13------|
| ----------------------------------|
| ----------------------------------|
| ----------------------------------|
  Verse gtr. 2

| ------------------------------------------------------------------|
| ------------------------------------------------------------------|
| -------------------------------------------------2----------------|
| -----------------------------------------------------11harm.------|
| -4--/11-10--9--7--4--4-7-9-9-9--7--9-10-10-9-10-------------------|
| -2--/9---8--7---5--2--2-5-7-7-7--5--7--8--8-7---8-----------------|
  Chorus 1

| ----2------4----|
| ----2------4----|
| ----------------|
| ----------------|
| -3-----6--------|
| -2-----4--------|
  Chorus 2

-thanks to mike at the headless cross page for which parts of this song were a pain in the ass to figure out.
Comments