Cold - Sick Of Man Chords & Tabs

 

Sick Of Man Chords & Tabs

Cold Chords & Tabs

Version: 1 Type: Tab 0 ratings
1 star 2 stars 3 stars 4 stars 5 stars
comments

Sick Of Man Tab

   
Sick Of Man
Straight C Tuning, tune down two whole steps

1=C   4=Bb
2=G   5=F
3=Eb  6=C

| -----------------------------
| -----12--------12b---------
| ---------11-----------------
| -9----------9---9b---------
| -----------------------------
| -----------------------------
  Intro/Verse

| -------------------------------------------
| --12-----13-----15--12---13--8--7----
| -------------------------------------------
| -------------------------------------------
| -------------------------------------------
| -------------------------------------------
  Chorus
[ Tab from: http://www.guitartabs.cc/tabs/c/cold/sick_of_man_tab.html ]
| -----------------------
| -----------------------
| -16----------14------
| -----------------------
| -14----------12------
| -----------------------
Bridge   - Riff 1 strum each of these octaves

| ----------------------------------------------------------------------------------------------------------------
| ----------------------------------------------------------------------------------------------------------------
| ----------------------------------------------------------------------------------------------------------------
| ----------------------------------------------------------------------------------------------------------------
| -2-2-x-x-2-2-x-x-2--x-x-5-5-5-5-5-5-5-5-5-5-5-5-5-5---2-2-x-x-2-2-x-x-2--x-x-5-5-5-5--4-4-4-4--
| -0-0-x-x-0-0-x-x-0--x-x-3-3-3-3-3-3-3-3-3-3-3-3-3-3---0-0-x-x-0-0-x-x-0--x-x-3-3-3-3--2-2-2-2--
  Bridge  - Riff 2


 
Free College Money 
 
 
undefined 
More... 
 
 
 
[Close] 
 
 
 
[Close] 
 
 
undefined

Comments