Cold - She Said Chords & Tabs

 

She Said Chords & Tabs

Cold Chords & Tabs

Version: 2 Type: Tab 0 ratings
1 star 2 stars 3 stars 4 stars 5 stars
comments

She Said Tab

-------------------------------------------------------------------------------
			     SHE SAID - Cold
-------------------------------------------------------------------------------

By:Lachrymal

Tuned down to Dropped Db

Verse: -Played with some sort of echo effect, though you can just hit the strings at
every echo, getting progressively lighter and make it 
sound almost exactly the same.-
[ Tab from: http://www.guitartabs.cc/tabs/c/cold/she_said_tab_ver_2.html ]
Guitar 1:
eb|---------------|
Bb|---------------|
Gb|---------------|
Db|-6---7---3---2-|
Ab|-6---7---3---2-|
Db|-6---7---3---2-|

Guitar 2:
eb|-------------------|
Bb|-------------------|
Gb|-------------------|
Db|-18---19---15---14-|
Ab|-18---19---15---14-|
Db|-18---19---15---14-|

Chorus:
eb|-------------------|-----------------|
Bb|-------------------|-----------------|
Gb|-444---------------|-----------------|
Db|-444-5p44----------|-444-5p44-4h55-2-|
Ab|-222-5p44-4h55-222-|-222-5p44-4h55-2-|
Db|-----5p44-4h55-222-|-----5p44-4h55-2-|
Comments