Cold - Serial Killer Chords & Tabs

 

Serial Killer Chords & Tabs

Cold Chords & Tabs

Version: 1 Type: Tab 0 ratings
1 star 2 stars 3 stars 4 stars 5 stars
comments

Serial Killer Tab

Transcribed by - Michael Doyle 
Contact me at goawey@hotmail.com
This tab belongs to http://www.iol.ie/~cold

tuning - C F Bb Eb G C (two whole steps/4 frets down)

---------------------------------------------------------------


Serial Killer

Intro

|-------------------------|--------------------------------|
|-------------------------|--------------------------------|
|-------------------------|--------------------------------|
|-12h14-14-14-12h14-14-14-|-12h14p12------14^-------14^r---|
|-12----------12----------|-12--------13--------12---------|
|-------------------------|--------------------------------|

|-------------------------|--------------------------------|
|-------------------------|--------------------------------|
|-------------------------|--------------------------------|
|-12h14-14-14-12h14-14-14-|-12h14p12------14^-------14^r---|
|-12----------12----------|-12--------13--------12---------|
|-------------------------|--------------------------------|

Gtr 1
|-------------------------|--------------------------------|
|-------------------------|--------------------------------|
|-------------------------|--------------------------------|
|-12h14-14-14-12h14-14-14-|-12h14p12------14^-------14^r---|
|-12----------12----------|-12--------13--------12---------|
|-------------------------|--------------------------------|

Gtr 2
|-------------------------|--------------------------------|
|-10h12-12-12-10h12-12-12-|-10h12p10-----------------------|
|-------------------------|-------------8^--------7^-------|
|-------------------------|--------------------------------|
|-------------------------|--------------------------------|
|-------------------------|--------------------------------|


Gtr 1
|-------------------------|--------------------------------|
|-------------------------|--------------------------------|
|-------------------------|--------------------------------|
|-12h14-14-14-12h14-14-14-|-12h14p12------14^-------14^r---|
|-12----------12----------|-12--------13--------12---------|
|-------------------------|--------------------------------|

Gtr 2
|-------------------------|--------------------------------|
|-10h12-12-12-10h12-12-12-|-10h12p10-----------------------|
|-------------------------|-------------8^--------7^-------|
|-------------------------|--------------------------------|
|-------------------------|--------------------------------|
|-------------------------|--------------------------------|


Verse 1
"I can see the bodies on the wall"
|-------------------------|--------------------------------|
|-10h12-12-12-10h12-12-12-|-10h12p10---------12--------12^-|
|-------------------------|-------------8^--------7^-------|
|-------------------------|--------------------------------|
|-------------------------|--------------------------------|
|-------------------------|--------------------------------|

|-------------------------|--------------------------------|
|-10h12-12-12-10h12-12-12-|-10h12p10---------12--------12^-|
|-------------------------|-------------8^--------7^-------|
|-------------------------|--------------------------------|
|-------------------------|--------------------------------|
|-------------------------|--------------------------------|

Chorus 1
Gtr 1
|-------------------------------------------------------------------------------------------------|
|-------------------------------------------------------------------------------------------------|
|-------------------------------------------------------------------------------------------------|
|--5---5--5--5-5-5-5-5--4---4--4--4-4-4-4-4-------------------------------------------------------|
|--3---3--3--3-3-3-3-3--2---2--2--2-2-2-2-2-/7--7-7--/7--7-7--7-7-7-7--/7--7-7--/7--7-7--7-7-7-7--|
|-------------------------------------------/5--5-5--/5--5-5--5-5-5-5--/5--5-5--/5--5-5--5-5-5-5--|

Gtr 2
|--------------10-------------------10------------------------10-----------------------------10---|
|--13-------------------12------------------10-----------------------------10---------------------|
|-------------------------------------------------------------------------------------------------|
|-------------------------------------------------------------------------------------------------|
|-------------------------------------------------------------------------------------------------|
|-------------------------------------------------------------------------------------------------|


Gtr 1
|-------------------------------------------------------------------------------------------------|
|-------------------------------------------------------------------------------------------------|
|-------------------------------------------------------------------------------------------------|
|--5---5--5--5-5-5-5-5--4---4--4--4-4-4-4-4-------------------------------------------------------|
|--3---3--3--3-3-3-3-3--2---2--2--2-2-2-2-2-/7--7-7--/7--7-7--7-7-7-7--/7--7-7--/7--7-7--7-7-7-7--|
|-------------------------------------------/5--5-5--/5--5-5--5-5-5-5--/5--5-5--/5--5-5--5-5-5-5--|


Gtr 2
|--------------10-------------------10------------------------10-----------------------------10---|
|--13-------------------12------------------10-----------------------------10---------------------|
|-------------------------------------------------------------------------------------------------|
|-------------------------------------------------------------------------------------------------|
|-------------------------------------------------------------------------------------------------|
|-------------------------------------------------------------------------------------------------|


Gtr 1
|-------------------------------------------------------------------------------------------------|
|-------------------------------------------------------------------------------------------------|
|-------------------------------------------------------------------------------------------------|
|--5---5--5--5-5-5-5-5--4---4--4--4-4-4-4-4-------------------------------------------------------|
|--3---3--3--3-3-3-3-3--2---2--2--2-2-2-2-2-/7--7-7--/7--7-7--7-7-7-7--/7--7-7--/7--7-7--7-7-7-7--|
|-------------------------------------------/5--5-5--/5--5-5--5-5-5-5--/5--5-5--/5--5-5--5-5-5-5--|


Gtr 2
|--------------10-------------------10------------------------10-----------------------------10---|
|--13-------------------12------------------10-----------------------------10---------------------|
|-------------------------------------------------------------------------------------------------|
|-------------------------------------------------------------------------------------------------|
|-------------------------------------------------------------------------------------------------|
|-------------------------------------------------------------------------------------------------|


Gtr 1
|-------------------------------------------------------------------------------------------------|
|-------------------------------------------------------------------------------------------------|
|-------------------------------------------------------------------------------------------------|
|--5---5--5--5-5-5-5-5--4---4--4--4-4-4-4-4-------------------------------------------------------|
|--3---3--3--3-3-3-3-3--2---2--2--2-2-2-2-2-/7--7-7--/7--7-7--7-7-7-7--/7--7-7--/7--7-7--7-7-7-7--|
|-------------------------------------------/5--5-5--/5--5-5--5-5-5-5--/5--5-5--/5--5-5--5-5-5-5--|

Gtr 2
|--------------10-------------------10------------------------10-----------------------------10---|
|--13-------------------12------------------10-----------------------------10---------------------|
|-------------------------------------------------------------------------------------------------|
|-------------------------------------------------------------------------------------------------|
|-------------------------------------------------------------------------------------------------|
|-------------------------------------------------------------------------------------------------|

Gtr 1
|-------------------------|--------------------------------|
|-------------------------|--------------------------------|
|-------------------------|--------------------------------|
|-12h14-14-14-12h14-14-14-|-12h14p12------14^-------14^r---|
|-12----------12----------|-12--------13--------12---------|
|-------------------------|--------------------------------|

Gtr 2
|-------------------------|--------------------------------|
|-10h12-12-12-10h12-12-12-|-10h12p10-----------------------|
|-------------------------|-------------8^--------7^-------|
|-------------------------|--------------------------------|
|-------------------------|--------------------------------|
|-------------------------|--------------------------------|


Gtr 1
|-------------------------|--------------------------------|
|-------------------------|--------------------------------|
|-------------------------|--------------------------------|
|-12h14-14-14-12h14-14-14-|-12h14p12------14^-------14^r---|
|-12----------12----------|-12--------13--------12---------|
|-------------------------|--------------------------------|

Gtr 2
|-------------------------|--------------------------------|
|-10h12-12-12-10h12-12-12-|-10h12p10-----------------------|
|-------------------------|-------------8^--------7^-------|
|-------------------------|--------------------------------|
|-------------------------|--------------------------------|
|-------------------------|--------------------------------|



Verse 2
"I can see the knives hung on the wall
pm..........................................................
|-------------------------|--------------------------------|
|-10h12-12-12-10h12-12-12-|-10h12p10-----------------------|
|-------------------------|-------------8^--------7^-------|
|-------------------------|--------------------------------|
|-------------------------|--------------------------------|
|-------------------------|--------------------------------|

pm..........................................................
|-------------------------|--------------------------------|
|-10h12-12-12-10h12-12-12-|-10h12p10-----------------------|
|-------------------------|-------------8^--------7^-------|
|-------------------------|--------------------------------|
|-------------------------|--------------------------------|
|-------------------------|--------------------------------|


Chorus 2

|-------------------------------------------------------------------------------------------------|
|-------------------------------------------------------------------------------------------------|
|-------------------------------------------------------------------------------------------------|
|--5---5--5--5-5-5-5-5--4---4--4--4-4-4-4-4-------------------------------------------------------|
|--3---3--3--3-3-3-3-3--2---2--2--2-2-2-2-2-/7--7-7--/7--7-7--7-7-7-7--/7--7-7--/7--7-7--7-7-7-7--|
|-------------------------------------------/5--5-5--/5--5-5--5-5-5-5--/5--5-5--/5--5-5--5-5-5-5--|

Gtr 2
|--------------10-------------------10------------------------10-----------------------------10---|
|--13-------------------12------------------10-----------------------------10---------------------|
|-------------------------------------------------------------------------------------------------|
|-------------------------------------------------------------------------------------------------|
|-------------------------------------------------------------------------------------------------|
|-------------------------------------------------------------------------------------------------|

[ Tab from: http://www.guitartabs.cc/tabs/c/cold/serial_killer_tab.html ]
Gtr 1
|-------------------------------------------------------------------------------------------------|
|-------------------------------------------------------------------------------------------------|
|-------------------------------------------------------------------------------------------------|
|--5---5--5--5-5-5-5-5--4---4--4--4-4-4-4-4-------------------------------------------------------|
|--3---3--3--3-3-3-3-3--2---2--2--2-2-2-2-2-/7--7-7--/7--7-7--7-7-7-7--/7--7-7--/7--7-7--7-7-7-7--|
|-------------------------------------------/5--5-5--/5--5-5--5-5-5-5--/5--5-5--/5--5-5--5-5-5-5--|

Gtr 2
|--------------10-------------------10------------------------10-----------------------------10---|
|--13-------------------12------------------10-----------------------------10---------------------|
|-------------------------------------------------------------------------------------------------|
|-------------------------------------------------------------------------------------------------|
|-------------------------------------------------------------------------------------------------|
|-------------------------------------------------------------------------------------------------|


Gtr 1
|-------------------------------------------------------------------------------------------------|
|-------------------------------------------------------------------------------------------------|
|-------------------------------------------------------------------------------------------------|
|--5---5--5--5-5-5-5-5--4---4--4--4-4-4-4-4-------------------------------------------------------|
|--3---3--3--3-3-3-3-3--2---2--2--2-2-2-2-2-/7--7-7--/7--7-7--7-7-7-7--/7--7-7--/7--7-7--7-7-7-7--|
|-------------------------------------------/5--5-5--/5--5-5--5-5-5-5--/5--5-5--/5--5-5--5-5-5-5--|

Gtr 2
|--------------10-------------------10------------------------10-----------------------------10---|
|--13-------------------12------------------10-----------------------------10---------------------|
|-------------------------------------------------------------------------------------------------|
|-------------------------------------------------------------------------------------------------|
|-------------------------------------------------------------------------------------------------|
|-------------------------------------------------------------------------------------------------|


Gtr 1
|-------------------------------------------------------------------------------------------------|
|-------------------------------------------------------------------------------------------------|
|-------------------------------------------------------------------------------------------------|
|--5---5--5--5-5-5-5-5--4---4--4--4-4-4-4-4-------------------------------------------------------|
|--3---3--3--3-3-3-3-3--2---2--2--2-2-2-2-2-/7--7-7--/7--7-7--7-7-7-7--/7--7-7--/7--7-7--7-7-7-7--|
|-------------------------------------------/5--5-5--/5--5-5--5-5-5-5--/5--5-5--/5--5-5--5-5-5-5--|

Gtr 2
|--------------10-------------------10------------------------10-----------------------------10---|
|--13-------------------12------------------10-----------------------------10---------------------|
|-------------------------------------------------------------------------------------------------|
|-------------------------------------------------------------------------------------------------|
|-------------------------------------------------------------------------------------------------|
|-------------------------------------------------------------------------------------------------|

Gtr 1
|-------------------------|--------------------------------|
|-------------------------|--------------------------------|
|-------------------------|--------------------------------|
|-12h14-14-14-12h14-14-14-|-12h14p12------14^-------14^r---|
|-12----------12----------|-12--------13--------12---------|
|-------------------------|--------------------------------|

Gtr 2
|-------------------------|--------------------------------|
|-10h12-12-12-10h12-12-12-|-10h12p10----17~----------------|
|-------------------------|--------------------------------|
|-------------------------|--------------------------------|
|-------------------------|--------------------------------|
|-------------------------|--------------------------------|


Gtr 1
|-------------------------|--------------------------------|
|-------------------------|--------------------------------|
|-------------------------|--------------------------------|
|-12h14-14-14-12h14-14-14-|-12h14p12------14^-------14^r---|
|-12----------12----------|-12--------13--------12---------|
|-------------------------|--------------------------------|

Gtr 2
|-------------------------|--------------------------------|
|-10h12-12-12-10h12-12-12-|-10h12p10----17~----------------|
|-------------------------|--------------------------------|
|-------------------------|--------------------------------|
|-------------------------|--------------------------------|
|-------------------------|--------------------------------|

Bridge

|---------------------------------|
|---------------------------------|
|--10~---------12~---------9~-----|
|---------------------------------|
|---------------------------------|
|---------------------------------|

|---------------------------------|
|---------------------------------|
|--10~---------12~---------9~-----|
|---------------------------------|
|---------------------------------|
|---------------------------------|

|---------------------------------|
|---------------------------------|
|--10~---------12~---------9~-----|
|------------------------------x\-|pick scrapes from pick up
|------------------------------x\-|
|------------------------------x\-|

|---------------------------------|
|---------------------------------|
|--10~---------12~---------9~-----|
|------------------------------x--|more pick scrapes
|------------------------------x--|
|------------------------------x--|

|---------------------------------|
|----------12---14-----15---------|
|--10~----------------------------|
|---------------------------------|
|---------------------------------|
|---------------------------------|


Chorus 3

Gtr 1
|-------------------------------------------------------------------------------------------------|
|-------------------------------------------------------------------------------------------------|
|-------------------------------------------------------------------------------------------------|
|--5---5--5--5-5-5-5-5--4---4--4--4-4-4-4-4-------------------------------------------------------|
|--3---3--3--3-3-3-3-3--2---2--2--2-2-2-2-2-/7--7-7--/7--7-7--7-7-7-7--/7--7-7--/7--7-7--7-7-7-7--|
|-------------------------------------------/5--5-5--/5--5-5--5-5-5-5--/5--5-5--/5--5-5--5-5-5-5--|

Gtr 2
|--------------10-------------------10------------------------10-----------------------------10---|
|--13-------------------12------------------10-----------------------------10---------------------|
|-------------------------------------------------------------------------------------------------|
|-------------------------------------------------------------------------------------------------|
|-------------------------------------------------------------------------------------------------|
|-------------------------------------------------------------------------------------------------|

Gtr 1
|-------------------------------------------------------------------------------------------------|
|-------------------------------------------------------------------------------------------------|
|-------------------------------------------------------------------------------------------------|
|--5---5--5--5-5-5-5-5--4---4--4--4-4-4-4-4-------------------------------------------------------|
|--3---3--3--3-3-3-3-3--2---2--2--2-2-2-2-2-/7--7-7--/7--7-7--7-7-7-7--/7--7-7--/7--7-7--7-7-7-7--|
|-------------------------------------------/5--5-5--/5--5-5--5-5-5-5--/5--5-5--/5--5-5--5-5-5-5--|

Gtr 2
|--------------10-------------------10------------------------10-----------------------------10---|
|--13-------------------12------------------10-----------------------------10---------------------|
|-------------------------------------------------------------------------------------------------|
|-------------------------------------------------------------------------------------------------|
|-------------------------------------------------------------------------------------------------|
|-------------------------------------------------------------------------------------------------|


Gtr 1
|-------------------------------------------------------------------------------------------------|
|-------------------------------------------------------------------------------------------------|
|-------------------------------------------------------------------------------------------------|
|--5---5--5--5-5-5-5-5--4---4--4--4-4-4-4-4-------------------------------------------------------|
|--3---3--3--3-3-3-3-3--2---2--2--2-2-2-2-2-/7--7-7--/7--7-7--7-7-7-7--/7--7-7--/7--7-7--7-7-7-7--|
|-------------------------------------------/5--5-5--/5--5-5--5-5-5-5--/5--5-5--/5--5-5--5-5-5-5--|

Gtr 2
|--------------10-------------------10------------------------10-----------------------------10---|
|--13-------------------12------------------10-----------------------------10---------------------|
|-------------------------------------------------------------------------------------------------|
|-------------------------------------------------------------------------------------------------|
|-------------------------------------------------------------------------------------------------|
|-------------------------------------------------------------------------------------------------|


Gtr 1
|-------------------------------------------------------------------------------------------------|
|-------------------------------------------------------------------------------------------------|
|-------------------------------------------------------------------------------------------------|
|--5---5--5--5-5-5-5-5--4---4--4--4-4-4-4-4-------------------------------------------------------|
|--3---3--3--3-3-3-3-3--2---2--2--2-2-2-2-2-/7--7-7--/7--7-7--7-7-7-7--/7--7-7--/7--7-7--7-7-7-7--|
|-------------------------------------------/5--5-5--/5--5-5--5-5-5-5--/5--5-5--/5--5-5--5-5-5-5--|

Gtr 2
|--------------10-------------------10------------------------10-----------------------------10---|
|--13-------------------12------------------10-----------------------------10---------------------|
|-------------------------------------------------------------------------------------------------|
|-------------------------------------------------------------------------------------------------|
|-------------------------------------------------------------------------------------------------|
|-------------------------------------------------------------------------------------------------|


Outro
"I wanna watch ya burn"
|-------------------------|--------------------------------|
|-10h12-12-12-10h12-12-12-|-10h12p10---17~-----------------|
|-------------------------|----------9---------------------|
|-------------------------|--------------------------------|
|-------------------------|--------------------------------|
|-------------------------|--------------------------------|

|-------------------------|--------------------------------|
|-10h12-12-12-10h12-12-12-|-10h12p10---17~-----------------|
|-------------------------|----------9---------------------|
|-------------------------|--------------------------------|
|-------------------------|--------------------------------|
|-------------------------|--------------------------------|

|---12--13---15-----------|---12--13---15^-----------------|
|-------------------------|--------------------------------|
|-------------------------|--------------------------------|
|-------------------------|--------------------------------|
|-------------------------|--------------------------------|
|-------------------------|--------------------------------|

Comments