Cold - Send In The Clowns Chords & Tabs

 

Send In The Clowns Chords & Tabs

Cold Chords & Tabs

Version: 2 Type: Tab 0 ratings
1 star 2 stars 3 stars 4 stars 5 stars
comments

Send In The Clowns Tab

   
Send In The Clowns
Straight C Tuning, tune down two whole steps

1=C   4=Bb
2=G   5=F
3=Eb  6=C

| ----10-9-10-9-10-9-10--
| -8------------------------
| ---------------------------
| ---------------------------
| ---------------------------
| ---------------------------
  Intro/Verse 

| ----------------------------------------------------------------------
| ----------------------------------------------------------------------
| ----------------------------------------------------------------------
| -4-4--4-4-4-2-----------------7-7-7-7-7-7-7-5-5-5-5-5-5-5--
| -2-2--2-2-2-0--5--5-5-5-5-5-5-5-5-5-5-5-5-5-3-3-3-3-3-3-3--
| ---------------3--3-3-3-3-3-3------------------------------------
  Chorus gtr. 1 (Terry) 

| ------------------------------------------------------------
| --------------------------------------7--8--10--8--7--5--
| ------------------------------------------------------------
| ------------------------------------------------------------
| -9-9--9-9-9--7--5--5-5-5-5-5-5-------------------------
| -7-7--7-7-7--5--3--3-3-3-3-3-3-------------------------
  Chorus gtr. 2 (Kelly)   
[ Tab from: http://www.guitartabs.cc/tabs/c/cold/send_in_the_clowns_tab_ver_2.html ]
| ---------------------------------------------
| ---------------------------------------------
| ---------------------------------------------
| -4-2-4-2-4-2---------------4-4-4-4-5-5--
| -2-0-2-0-2-0----2-3-3--2---2-2-2-2-3-3--
| ----------------0-1-1--0-----------------
  Bridge 

| -------------------------
| -------------------------
| -16-16-16-16-16-16-16----
| -------------------------
| -14-14-14-14-14-14-14----
| -------------------------
  Outro (terry, played with wah pedal)

=======================================================

Cold
Send In The Clowns
From: 13 Ways to Bleed On Stage
Tabbed By: Dark Prince

Tuning: CGCFAD

Intro

D-------------12---------
A----12-11-12---11-12-12-
F-10---------------------

Chorus

C-7--7--7-7-7--5--3--3-3--3-3-3--12-12-12-12---9--9--9--9--9-
G-7--7--7-7-7--5--3--3-3--3-3-3--10-10-10-10--10-10-10-10-10-
C-7--7--7-7-7--5--3--3-3--3-3-3--10-10-10-10---9--9--9--9--9-

Bridge

C-7--5--7--5--7--5--7--5-
G-7--5--7--5--7--5--7--5-
C-7--5--7--5--7--5--7--5-

Outro

Part 1

C-0--0--11--0--7--7--7--7--8--8-
G-0--0--11--0--7--7--7--7--8--8-
C-0--0--11--0--7--7--7--7--8--8-

C-0--0--11--0--7--0--7--8--0--8-
G-0--0--11--0--7--0--7--8--0--8-
C-0--0--11--0--7--0--7--8--0--8-

====
Comments