Cold - Same Drug Chords & Tabs

 

Same Drug Chords & Tabs

Cold Chords & Tabs

Version: 1 Type: Tab 0 ratings
1 star 2 stars 3 stars 4 stars 5 stars
comments

Same Drug Tab

   
Same Drug
Straight C Tuning, tune down two whole steps

1=C   4=Bb
2=G   5=F
3=Eb  6=C

| ----------9-----------9---------9---------9--------
| -----------------------------------------------------
| -10h12-----12h10----10h9----9h10-----9-------
| -----------------------------------------------------
| -----------------------------------------------------
| -----------------------------------------------------
  Intro

| -----------------------------
| -----------------------------
| -9-10-9-10-12-10-9b-----
| -----------------------------
| -----------------------------
| -----------------------------
  Verse riff 1
[ Tab from: http://www.guitartabs.cc/tabs/c/cold/same_drug_tab.html ]
| ----------------------------------------------------
| ----------9----------9---------9-------9----------
| -10h12----12h10----10h9----6h7---------------
| ----------------------------------------------------
| ----------------------------------------------------
| ----------------------------------------------------
  Verse riff 2

| -------------------------------------------------------------------------------
| -------------------------------------------------------------------------------
| -------------------------------------------------------------------------------
| -5--5--5-5-5-5-5-5-4--4--4--4-4-4-4-4-4---------------------------------
| -3--3--3-3-3-3-3-3-3--2--2--2-2-2-2-2-2--2-2-2-2-4-4-4/5-5--5-5-5--
| ------------------------------------------------0-0-0-0-2-2-2/3-3--3-3-3--
  Chorus

Comments