Cold - Sad Happy Chords & Tabs

 

Sad Happy Chords & Tabs

Cold Chords & Tabs

Version: 1 Type: Tab 0 ratings
1 star 2 stars 3 stars 4 stars 5 stars
comments

Sad Happy Tab

ok i just kinda messed around with it, but i think this is it...


E--------------------------------------------------------------E
B--------------------------------------------------------------B
G------3---3-5-------3--3-------3--3-5-----3--3-5--------------G
D----5---5---------5--5--5----5--5-------5--5------allthis3x---D
A--3-----------------------------------------------------------A
E---------------6-----------4----------3-----------------------E


E----------------------------------e-----------------------------e
B----------------------------------b---4-3-6-4-3-4---------------b
G----------------------------------g-----------------------------g
D-10101010----8-------6------5-----d-----------------------------d
A-10101010-2x-8---8x--6--x8--5--8x-a-----------------------------a
E-8-8-8-8-----6-------4------3-----e-----------------------------e
  . . . . . . . . . . . . . . . . .
Chorus

e----------------------------e
b----------------------------b
g-6--8-----------------------g
d-6--8--3--6-----------------d
a-4--6--3--6-----------------a
e-------1--4-----------------e

[ Tab from: http://www.guitartabs.cc/tabs/c/cold/sad_happy_tab.html ]
E--------------------------------------------------------------E
B--------------------------------------------------------------B
G------3---3-5-------3--3-------3--3-5-----3--3-5--------------G
D----5---5---------5--5--5----5--5-------5--5------------------D
A--3-----------------------------------------------------------A
E---------------6-----------4----------3-----------------------E


E----------------------------------e-----------------------------e
B----------------------------------b---4-3-6-4-3-4---------------b
G----------------------------------g-----------------------------g
D-10101010----8-------6------5-----d-----------------------------d
A-10101010-2x-8---8x--6--x8--5--8x-a-----------------------------a
E-8-8-8-8-----6-------4------3-----e-----------------------------e
   . . . . . . . . . . . . . . . . 
Chorus
e----------------------------e
b----------------------------b
g-6--8-----------------------g
d-6--8--3--6-----------------d
a-4--6--3--6-----------------a
e-------1--4-----------------e

Solo
e------------------------------------------------------------------------e
b------------------------------------------------------------------------b
g12-13-13-13-13-12-12----------------12-13-13-13-13-12-12-15-15-13-12-13-G
d-----------------------13-13-13/15-13-----------------------------------d
a------------------------------------------------------------------------a
E------------------------------------------------------------------------E

back to chorus 

then the solo again

sry not much detail, kinda was in a rush

comments
Comments