Cold - Sad Happy Chords & Tabs

 

Sad Happy Chords & Tabs

Cold Chords & Tabs

Version: 1 Type: Bass Tab 0 ratings
1 star 2 stars 3 stars 4 stars 5 stars
comments

Sad Happy Bass Tab

Cold:Year of the Spider:Sad Happy
Tab by: Dave C.

This, is a really confusing song when it comes to the bass, cuz 
it changes lines and notes, back and forth, but im pretty sure this is 
right.

~=let ring

0:09                          Verse 1
G|---------------|---------------|---------------|---------------|
D|---------------|---------------|---------------|---------------|
A|------------5h6|------------5h6|--------------0|------------2h3|2x
E|6-6-6-6~-------|4-4-4-4~-------|2-2-2-2~-------|0-0-0-0--------|
[ Tab from: http://www.guitartabs.cc/tabs/c/cold/sad_happy_btab.html ]
0:28                          Verse 2
G|---------------|---------------|---------------|---------------|
D|---------------|---------------|---------------|---------------|
A|------------5h6|------------4h5|--------------0|------------2h3|2x
E|6-6-6-6-6-6----|4-4-4-4-4-4----|2-2-2-2-2-2----|0-0-0-0-0-0----|

0:48                          Chorus
G|---------------|---------------|---------------|---------------|
D|---------------|---------------|---------------|---------------|
A|3-3-3-3-3-3-3-3|5-5-5-5-5-5-5-5|7-7-7-7-7-7-7-7-0-0-0-0-0-0-0-0|2x
E|---------------|---------------|---------------|---------------|

1:07 Verse 1 3x

1:35 Verse 2 2x

1:54 Chorus 9x (the chorus plays through the bridge)
Comments