Cold - Rain Song Chords & Tabs

 

Rain Song Chords & Tabs

Cold Chords & Tabs

Version: 1 Type: Bass Tab 0 ratings
1 star 2 stars 3 stars 4 stars 5 stars
comments

Rain Song Bass Tab

Cold
"Rain Song"


Verse
G -----------------------------------------
D -----------------------------------------
A -----------------------------------------
E -----------------------------------------
B ---5/7---3-------5-----2-----------------


Chorus
G ----------------------------------------------------------------------------------
D ----------------------------------------------------------------------------------
A ----------------------------------------------------------------------------------
E ----------------------------------------------------------------------------------
B -3-3-3--3-3-3--3-3---2-2-2--2-2-2--2-2---7-7-7--7-7-7--7-7---5-5-5--5-5-5--5-5----
[ Tab from: http://www.guitartabs.cc/tabs/c/cold/rain_song_btab.html ]
G -------------------------------------------------------------------------------
D -------------------------------------------------------------------------------
A -----------------------------------------------------------------7-------------
E ---------------------------------------------------------------7---------------
B -3-3-3--3-3-3--3-3---2-2-2--2-2-2--2-2---7-7-7--7-7-7--7-7---5------5---5------


Alternate Verse (1:18)
G ------------------------------------
D ------------------------------------
A ---/9------5------------------------
E ------------------------------------
B ------------------5-------2---------


Bridge
G ----------------------------------------------------------------------------------
D ----------------------------------------------------------------------------------
A ----------------------------------------------------------------------------------
E -7-7-7-7-7-7-7-7---5-5-5-5-5-5-5-5---9-9-9-9-9-9-9-9---10-10-10-10-10-10-10-10----
B ----------------------------------------------------------------------------------


Order:
Verse (X6)
Chorus
Verse (X6)
Alternate Verse
Verse (X3)
Chorus (X2)
Bridge (X3)
Chorus (X2)
Comments