Cold - No One Chords & Tabs

 

No One Chords & Tabs

Cold Chords & Tabs

Version: 9 Type: Tab 0 ratings
1 star 2 stars 3 stars 4 stars 5 stars
comments

No One Tab

-------------------------------------------------------------------------------
			     NO ONE - Cold
-------------------------------------------------------------------------------

By:Lachrymal

Dropped Db tuning...This is RIGHT!!!
[ Tab from: http://www.guitartabs.cc/tabs/c/cold/no_one_tab_ver_9.html ]
intro/verse:
eb|-----------------------------------------|
Bb|-----------------------------------------|
Gb|-----------------------------------------|
Db|---6---6---7---7--7-7---7---7---6---666b-|
Ab|---------0---0---0-0--5---5---4---4------|
Db|-4---4-----------------------------------|

chorus:
eb|-----------------------------------------|
Bb|-----------------------------------------|
Gb|-----------------------------------------|
Db|-9-99-9-99-9-9-9h11-777-6----------------|
Ab|-9-99-9-99-9-9-9h11-777-6----------------|
Db|-9-99-9-99-9-9-9h11-777-6----------------|

i almost have the breakdown part figured out, i'll post it soon...
Comments