Cold - No One Chords & Tabs

 

No One Chords & Tabs

Cold Chords & Tabs

Version: 8 Type: Tab 0 ratings
1 star 2 stars 3 stars 4 stars 5 stars
comments

No One Tab

Verse
------------------------------------------------------------
------------------------------------------------------------
------------------------------------------------------------
------------------------------------------------------------
----9----9----10---10---10---10---10---10-99999^9-----------
--0----0----0----0----0----8----8----8----------------------


------------------------------------------------------------
------------------------------------------------------------
----9----9----10---10---10---10---10---10-99999^9-----------
--0----0----0----0----0----8----8----8----------------------
------------------------------------------------------------
------------------------------------------------------------

[ Tab from: http://www.guitartabs.cc/tabs/c/cold/no_one_tab_ver_8.html ]
Chorus
------------------------------------------------------------
------------------------------------------------------------
------------------------------------------------------------
------------------------------------------------------------
--9--9--99-9-9999/11-11-11-11-7-7-77-7/6-6------------------
--7--7--77-7-7777/9--9--9--9-/5-5-55-5/4-4------------------

Thingy
------------------------------------------------------------
------------------------------------------------------------
------------------------------------------------------------
------------------------------------------------------------
----9----9----9-9/10/9----9-10--11-11-11-12-12-12-11-11-11--
--0----0----0-----------8-----------------------------------


------------------------------------------------------------
------------------------------------------------------------
------------------------------------------------------------
---------------------x-x--x-xx-xx--xx---x-x--x-xx-xx--xx----
--9-9-9-10-9/10/9----x-x--x-xx-xx--xx---x-x--x-xx-xx--xx----
---------------------x-x--x-xx-xx--xx---x-x--x-xx-xx--xx----
Comments