Cold - No One Chords & Tabs

 

No One Chords & Tabs

Cold Chords & Tabs

Version: 7 Type: Tab 0 ratings
1 star 2 stars 3 stars 4 stars 5 stars
comments

No One Tab

Dropped D tuning (DADGBE)


Intro/Verse
e-|-------------------------------------------------------------------
B-|-------------------------------------------------------------------
G-|-------------------------------------------------------------------
D-|----5----5----6----6----6------6----6-------5-5-5-5b6r5-5----------
A-|-----------------------------4----4----5-3----------------3--------
D-|--3----3----3----3----3----3---------------------------------------

Change in Verse (after 3x)
e-|-------------------------------------------------------------------
B-|------------------------------4----4-------3-3-3-3b4r3-3-----------
G-|-------------------------------------------------------------------
D-|----5----5----6----6----6------------------------------------------
A-|----------------------------4----4----0-3----------------3---------
D-|--3----3----3----3----3---3----------------------------------------
[ Tab from: http://www.guitartabs.cc/tabs/c/cold/no_one_tab_ver_7.html ]
Chorus
e-|-------------------------------------------------------------------
B-|-------------------------------------------------------------------
G-|-------------------------------------------------------------------
D-|--8--8--8-8-8-8--8-8-8-8-10-10-10-6--6--6-6-6-5--5-5--5-5-5-5------
A-|--8--8--8-8-8-8--8-8-8-8-10-10-10-6--6--6-6-6-5--5-5--5-5-5-5------
D-|--8--8--8-8-8-8--8-8-8-8-10-10-10-6--6--6-6-6-5--5-5--5-5-5-5------

Interlude
e-|---------------------------------------------------------
B-|---------------------------------------------------------
G-|----------------------------------------5-5-5-----------3--3b4r3---
D-|----3----3----5--5/6-5-3----3-5-5/6-6-6-------6-6-5-5-5--
A-|---------------------------------------------------------
D-|--3----3----3-------------3------------------------------
     "I'm so sick of this terrible instinct..."


Order:
Intro/Verse 5x (change after 3x)
Chorus 2x
Verse (change after 3x)
Chorus 4x
Interlude 5x
Chorus 4x
Verse Riff 1x
end
Comments