Cold - No One Chords & Tabs

 

No One Chords & Tabs

Cold Chords & Tabs

Version: 6 Type: Tab 0 ratings
1 star 2 stars 3 stars 4 stars 5 stars
comments

No One Tab

Cold 
No one
13 ways to bleed on stage
Drop C Tuning

Opening/Verse:
------------------------------------------------|
------------------------------------------------|
------------------------------------------------|
------------------------------------------------|
---9---9---10---10---10-----10---10-----9-9-9-9-|
-0---0---0----0----0----0-8----8----0-7---------|x5)

Chorus Pattern:
---------|
---------|
---------|
-7-5-4---|
-x-x-x---|
-5-3-2---|

Opening/Verse (x5)

Chorus (x4)
[ Tab from: http://www.guitartabs.cc/tabs/c/cold/no_one_tab_ver_6.html ]
Bridge:
Gtr 1
-----------------------------------------------------------
-----------------------------------------------------------
-----------------------------------------------------------
------------------------------------9-9-9------------7777b-
--7---7---7-9-10-9-7-7---7-9-101010-------1010-9-9-9-------
0---0---0--------------0-----------------------------------

Gtr 2
---------------------|
---------------------|
---------------------|
-x-x----x-x-x-x------|
-x-x----x-x-x-x------|
-x-x----x-x-x-x-(3x--|
feedback before muted notes

Chorus (4x)

Outro:
-----------------------------------------------|
-----------------------------------------------|
-----------------------------------------------|
-----------------------------------------------|
---9---9---10---10---10-----10---10-----9-9-9-9|
-0---0---0----0----0----0-8----8----0-7--------|
Comments