Cold - No One Chords & Tabs

 

No One Chords & Tabs

Cold Chords & Tabs

Version: 5 Type: Tab 0 ratings
1 star 2 stars 3 stars 4 stars 5 stars
comments

No One Tab

   
Cold, No One.
Tabbed by Rich, reddman1221@hotmail.com.
  
Hey this is a really cool song and the video is phat!!
The tuning is dropped down 2 whole steps. I'm tabbing the part for the single note guitar (so you'd be playin the part in the beginning).
[ Tab from: http://www.guitartabs.cc/tabs/c/cold/no_one_tab_ver_5.html ]
C F Bb Eb G C
/=SLIDE
^=BEND
Intro/Verse/Bridge: (flanger)
X4
c:------------------------------------------------
G:------------------------------------------------
Eb:-----------------------------------------------
Bb:---9-9-10-10-10-10--10---9-9-9-9-9^------------
F:---0-0-0--0--0--8--8---8/7-7-7------------------
C:------------------------------------------------

Chorus: just keep repeating this a bunch of times 'til the chorus stops
c:------------------------------------------------
G:------------------------------------------------
Eb:---14--14---14---------------------------------
Bb:-----14--14---14-------------------------------
F:------------------------------------------------
C:------------------------------------------------


Well thats it I suppose there might be some changes but I'm sure u can figure it out. Later. 
:: Ultimate Guitar Archive :: 
http://www.ultimate-guitar.com 

Comments