Cold - No One Chords & Tabs

 

No One Chords & Tabs

Cold Chords & Tabs

Version: 4 Type: Tab 0 ratings
1 star 2 stars 3 stars 4 stars 5 stars
comments

No One Tab

COLD 	
NO ONE
Tabbed ATS	
Standard Tuning (You don’t need to tune down screw that)
Intro and Verse
E----------------------------------------------------------------------------------------------
B----------------------------------------------------------------------------------------------
G----0------0--------1-------1--------1------1-------0-------0-----------------------------
D-------------------------------------------------------------------5---(5)-Bend------------
A------------------------------------4------4------3-------3---------------------------------
E-1------1-------1-------1-------------------------------------------------------------------
The 2nd guitar plays the High Part
E-----3------3-----4--------4----------------------------------------------------------------
B---------------------------------------4-------4------3---3--------3h5p3------------------
G----------------------------------6-------6--------------------------------------------------
D-3------3------3--------3-------------------------------------------------------------------
A-----------------------------------------------------------------------------------------------
E-----------------------------------------------------------------------------------------------
Chorus figure out the struming
E-----------------------------------------------------------------------------------------------
B-----------------------------------------------------------------------------------------------
G-----------------------------------------------------------------------------------------------
D---8-8-8-8-8-8-8-8-8-8-8-8-6-6-6-6-5-5-5-5--------------------------------------------
A---8-8-8-8-8-8-8-8-8-8-8-8-6-6-6-6-5-5-5-5--------------------------------------------
E---6-6-6-6-6-6-6-6-6-6-6-6-4-4-4-4-3-3-3-3--------------------------------------------
Interlude
E-------------------------|----------------------------------------------------------------------
B-------------------------|----------------------------------------------------------------------
G------------0-0h10----|--------------5-5-5--------------------------------------------------
D----------------------3-|----5-6-6-6---------6-6-5-5-5-----8-8h9p8--6-------------------
A-------------------------|----------------------------------------------------------------------
E--1--1-ect--------------|----------------------------------------------------------------------

[ Tab from: http://www.guitartabs.cc/tabs/c/cold/no_one_tab_ver_4.html ]
Comments