Cold - No One Chords & Tabs

 

No One Chords & Tabs

Cold Chords & Tabs

Version: 3 Type: Tab 0 ratings
1 star 2 stars 3 stars 4 stars 5 stars
comments

No One Tab

Author/Artist: Cold
Title: No One
Album: 13 Ways To Bleed On Stage
Transcribed by: Matt P
Email: bigmatt4411@hotmail.com

The guitarist in Cold actually plays this song in C, F, Bb, Eb, G, C
tuning.  This tab is for people who want to play this song without 
having to re-tune their guitars.  Just tune the low E string to D for
this tab.

^=bend
[ Tab from: http://www.guitartabs.cc/tabs/c/cold/no_one_tab_ver_3.html ]
Verse
------------------------------------------------
------------------------------------------------
------------------------------------------------
---5---5---6---6---6-----6---6-----5-5-5-5/6-5--
-8---8---8---8---8---0-4---4---0-3--------------
------------------------------------------------
                                                                              
Chorus: Listen to the song for the exact strumming pattern
------------------------------------------------
------------------------------------------------
------------------------------------------------
-10-10-10-10---10-10---10-10-10---8-8-8-8---7---
-8--8--8--8----8--8----8--8--8----6-6-6-6---5---
-8--8--8--8----8--8----8--8--8----6-6-6-6---5---
                                                                              
Bridge: Repeat three times
------------------------------------------------------|
------------------------------------------------------|
--------------------------------5-5-5-----------3-3---|
---5---5---6-5h6p5-3--3-5-6-6-6-------6-6-5-5-5---^--8|
-8---8---8--------------------------------------------|
------------------------------------------------------|
                                                                              
Bridge Continued: This is where it kicks into distortion, it's all palm muted
except for the last two notes. Play this once.
------------------------------------------------------------------|
------------------------------------------------------------------|
-------------------------------------------5-5-5-----------3--3---|
---------------5---5/6-\5-3------3-5-6-6-6-------6-6-5-5-5----^-8-|
-8-8-8-8-8-8-8---8----------8-8-----------------------------------|
------------------------------------------------------------------|
P.M.........................................................      

Bridge End: This is same as the last part, but you stop palm muting
after "8-8". Play this once.      
------------------------------------------------------------------|
------------------------------------------------------------------|
-------------------------------------------5-5-5-----------3--3---|
---------------5---5/6-\5-3------3-5-6-6-6-------6-6-5-5-5----^-8-|
-8-8-8-8-8-8-8---8----------8-8-----------------------------------|
------------------------------------------------------------------|
P.M............................

Thats it!
Comments