Cold - No One Chords & Tabs

 

No One Chords & Tabs

Cold Chords & Tabs

Version: 10 Type: Tab 0 ratings
1 star 2 stars 3 stars 4 stars 5 stars
comments

No One Tab

Tuning Drop C (2 whole steps down)
This also sounds good in standard tuning for all you lazy people out there
Hell yes go Lazy people! :D 

Intro/Verse

C |------------------------------------------------------------
G |------------------------------------------------------------
Eb|------------------------------------------------------------
Bb|-----5----5----6----6----6-------6-----6-----5-----5-5-5/6\5
F |---8----8----8----8---8-------4-----4-----3-----3-----------
C |------------------------------------------------------------


Chorus

 You'll have to figure out the strumming pattern. but heres the chords
C |--------------------------------------------
G |--------------------------------------------
Eb|--------------------------------------------
Bb|-----10-------9-------7------------------------
F |-----8--------7-------5------------------------
C |-----8--------7-------5------------------------


[ Tab from: http://www.guitartabs.cc/tabs/c/cold/no_one_tab_ver_10.html ]
Interlude: Repeat Three Times

C |------------------------------------------------------------------
G |------------------------------------------------------------------
Eb|-----------------------------------------5-5-5-------------3-3----
Bb|------5-----5-----6--5h6p5--3--3-5-6-6-6--------6-6-5-5-5----^---8
F |----8----8-----8--------------------------------------------------
C |------------------------------------------------------------------


Interlude Continued: Distortion kicks in here.

C |----------------------------------------------------------------
G |----------------------------------------------------------------
Eb|------------------------------------------5-5-5-----------3--3--
Bb|------------------5---5/6\5-3----3-5-6-6-6------6-6-5-5-5----^--
F |---8-8-8-8-8-8-8----8---------8-8------------------------------8
C |----------------------------------------------------------------
  P.M..............................................................
Comments