Cold - No One Chords & Tabs

 

No One Chords & Tabs

Cold Chords & Tabs

Version: 1 Type: Tab 0 ratings
1 star 2 stars 3 stars 4 stars 5 stars
comments

No One Tab

   
This songs pretty easy to play but its fun so here it is. Key: b-bend 
  Dropped-d Tuning (low to high: d,A,d,G,B,e).            1/2- how much bend   
     Intro
e---------------------------------------------------------------------------------------------------------------
B---------------------------------------------------------------------------------------------------------------
G---------------------------------------------------------------------------------------------------------------
D---------5--------5--------6--------6----------6------------6-------6------------------------------------------
A--------------------------------------------------------4-------4-----------3---------5---5---5---5b1/2--------
D----3--------3--------3--------3----------3---------3--------------------3------------------------------------3

[ Tab from: http://www.guitartabs.cc/tabs/c/cold/no_one_tab.html ]
e----------------------------------------------------------------------------------------------------------------
B----------------------------------------------------------------------------------------------------------------
G------12------12---------13------13----13-----------------------------------------------------------------------
D-10-------10--------10--------10-----10-----13---13------13--13--13-------12-12-12-12-12b1/2--------------------
A-----------------------------------------------------11--------------10-----------------------------------------
D----------------------------------------------------------------------------------------------------------------

  W/ Distortion   Chorus
e----------------------------------------------------------------------------------------------------------------
B----------------------------------------------------------------------------------------------------------------
G----------------------------------------------------------------------------------------------------------------
D--8-8-8-8--8-x-8--8--8-x-8--8-----6-6-6-6-6-x--5--5-5-5-5-5---6--6--8----------------------------------------------------------------------
A--8-8-8-8--8-x-8--8--8-x-8--8-----6-6-6-6-6-x--5--5-5-5-5-5---6--6--8----------------------------------------------------------------------
D--8-8-8-8--8-x-8--8--8-x-8--8-----6-6-6-6-6-x--5--5-5-5-5-5---6--6--8----------------------------------------------------------------------
Comments