Cold - Kill The Music Industry Chords & Tabs

 

Kill The Music Industry Chords & Tabs

Cold Chords & Tabs

Version: 1 Type: Tab 0 ratings
1 star 2 stars 3 stars 4 stars 5 stars
comments

Kill The Music Industry Tab

Kill the Music Industry Tab
By Cold

Tuning:
Guitar 1 (Left Channel): Drop D and down 1 whole step
Guitar 2 (Right Channel): Drop D and down 1 whole step

Gunshots (approx. 7 seconds)

INTRO
  Guitar 1  
D|-----------------|-----------------|-----------------|-----------------|
A|-----------------|-----------------|-----------------|-----------------|
F|-----------------|-----------------|-----------------|-----------------|
C|-1-1-0-0-8-8-3---|-1-1-0-0-8-8-3-3-|-1-1-0-0-8-8-3---|-1-1-0-0-8-8-3-1-|
G|-1-1-0-0-8-8-3---|-1-1-0-0-8-8-3-3-|-1-1-0-0-8-8-3---|-1-1-0-0-8-8-3-1-|
C|-1-1-0-0-8-8-3---|-1-1-0-0-8-8-3-3-|-1-1-0-0-8-8-3---|-1-1-0-0-8-8-3-1-|

VERSE 1
  Guitars 1 and 2
  "They change your faith..."
D|-----------------|-----------------|-----------------|-----------------|
A|-----------------|-----------------|-----------------|-----------------|
F|-----------------|-----------------|-----------------|-----------------|
C|-1-0-0-8-8-3-----|---0-0-8-8-3-3-1-|-1-0-0-8-8-3-----|---0-0-8-8-3-3-1-|
G|-1-0-0-8-8-3-----|---0-0-8-8-3-3-1-|-1-0-0-8-8-3-----|---0-0-8-8-3-3-1-|
C|-1-0-0-8-8-3-----|---0-0-8-8-3-3-1-|-1-0-0-8-8-3-----|---0-0-8-8-3-3-1-|
   P.M. - - - - - - - - - - - - - - - - - - - - - - - - - - - - - - - - -|

						        "They think they'll..."
D|-----------------|-----------------|-----------------|-----------------|
A|-----------------|-----------------|-----------------|-----------------|
F|-----------------|-----------------|-----------------|-----------------|
C|-1-0-0-8-8-3-----|---0-0-8-8-3-3-1-|-1-0-0-8-8-3-----|---0-0-8-8-3-3-1-|
G|-1-0-0-8-8-3-----|---0-0-8-8-3-3-1-|-1-0-0-8-8-3-----|---0-0-8-8-3-3-1-|
C|-1-0-0-8-8-3-----|---0-0-8-8-3-3-1-|-1-0-0-8-8-3-----|---0-0-8-8-3-3-1-|
   P.M. - - - - - - - - - - - - - - - - - - - - - |

  "change..."						"They can't relate..."
D|-----------------|-----------------|-----------------|-----------------|
A|-----------------|-----------------|-----------------|-----------------|
F|-----------------|-----------------|-----------------|-----------------|
C|-1-0-0-8-8-3-1-1-|-1-0-0-8-8-3-3-1-|-1-0-0-8-8-3-1-1-|-1-0-0-8-8-3-3-1-|
G|-1-0-0-8-8-3-1-1-|-1-0-0-8-8-3-3-1-|-1-0-0-8-8-3-1-1-|-1-0-0-8-8-3-3-1-|
C|-1-0-0-8-8-3-1-1-|-1-0-0-8-8-3-3-1-|-1-0-0-8-8-3-1-1-|-1-0-0-8-8-3-3-1-|
	       P.M. - |			           P.M. - |

  "to real life"
D|-----------------|-----------------|-----------------|-----------------|
A|-----------------|-----------------|-----------------|-----------------|
F|-----------------|-----------------|-----------------|-----------------|
C|-1-0-0-8-8-3-1-1-|-1-0-0-8-8-3-3-1-|-1-0-0-8-8-3-----|---0-0-8-8-3-3-1-|
G|-1-0-0-8-8-3-1-1-|-1-0-0-8-8-3-3-1-|-1-0-0-8-8-3-----|---0-0-8-8-3-3-1-|
C|-1-0-0-8-8-3-1-1-|-1-0-0-8-8-3-3-1-|-1-0-0-8-8-3-----|---0-0-8-8-3-3-1-|
	       P.M. - |				   

REFRAIN
  "Sick of all this monotony..."
D||------------------|-----------------|-----------------|------------------||
A||------------------|-----------------|-----------------|------------------||
F||o-----------------|-----------------|-----------------|-----------------o||
C||o-5---------------|-3---------------|-6---------------|-5---------------o||
G||--5---------------|-3---------------|-6---------------|-5----------------||
C||--5---------------|-3---------------|-6---------------|-5----------------||
								   (Play 2x)

INTERLUDE
D|-----------------|-----------------|-----------------|-----------------|
A|-----------------|-----------------|-----------------|-----------------|
F|-----------------|-----------------|-----------------|-----------------|
C|-1-0-0-8-8-3---1-|-1-0-0-8-8-3-3-1-|-1-0-0-8-8-3---1-|-1-0-0-8-8-3-3-1-|
G|-1-0-0-8-8-3---1-|-1-0-0-8-8-3-3-1-|-1-0-0-8-8-3---1-|-1-0-0-8-8-3-3-1-|
C|-1-0-0-8-8-3---1-|-1-0-0-8-8-3-3-1-|-1-0-0-8-8-3---1-|-1-0-0-8-8-3-3-1-|
[ Tab from: http://www.guitartabs.cc/tabs/c/cold/kill_the_music_industry_tab.html ]
VERSE 2
    Guitar 1
    "They trust the way..."
|-D|-----------------|-----------------|-----------------|-----------------|
| A|-----------------|-----------------|-----------------|-----------------|
| F|-----------------|-----------------|-----------------|-----------------|
| C|-1-0-0-8-8-3---1-|-1-0-0-8-8-3-3-1-|-1-0-0-8-8-3---1-|-1-0-0-8-8-3-3-1-|
| G|-1-0-0-8-8-3---1-|-1-0-0-8-8-3-3-1-|-1-0-0-8-8-3---1-|-1-0-0-8-8-3-3-1-|
| C|-1-0-0-8-8-3---1-|-1-0-0-8-8-3-3-1-|-1-0-0-8-8-3---1-|-1-0-0-8-8-3-3-1-|
|   P.M. - - - - - - - - - - - - - - - - - - - - - - - - - - - - - - - - -|
|
|   Guitar 2
| D|-----------------|-----------------|-----------------|-----------------|
| A|-----------------|-----------------|-----------------|-----------------|
| F|-----------------|-----------------|-----------------|-----------------|
| C|-1-0-0-8-8-3-----|---0-0-8-8-3-3-1-|-1-0-0-8-8-3-----|---0-0-8-8-3-3-1-|
| G|-1-0-0-8-8-3-----|---0-0-8-8-3-3-1-|-1-0-0-8-8-3-----|---0-0-8-8-3-3-1-|
|-C|-1-0-0-8-8-3-----|---0-0-8-8-3-3-1-|-1-0-0-8-8-3-----|---0-0-8-8-3-3-1-|
    P.M. - - - - - - - - - - - - - - - - - - - - - - - - - - - - - - - - -|

    "It's time for us..."				  "They think they'll..."
|-D|-----------------|-----------------|-----------------|-----------------|
| A|-----------------|-----------------|-----------------|-----------------|
| F|-----------------|-----------------|-----------------|-----------------|
| C|-1-0-0-8-8-3---1-|-1-0-0-8-8-3-3-1-|-1-0-0-8-8-3---1-|-1-0-0-8-8-3-3-1-|
| G|-1-0-0-8-8-3---1-|-1-0-0-8-8-3-3-1-|-1-0-0-8-8-3---1-|-1-0-0-8-8-3-3-1-|
| C|-1-0-0-8-8-3---1-|-1-0-0-8-8-3-3-1-|-1-0-0-8-8-3---1-|-1-0-0-8-8-3-3-1-|
|   P.M. - - - - - - - - - - - - - - - - - - - - - - - - - - - -|
|
| D|-----------------|-----------------|-----------------|-----------------|
| A|-----------------|-----------------|-----------------|-----------------|
| F|-----------------|-----------------|-----------------|-----------------|
| C|-1-0-0-8-8-3-----|---0-0-8-8-3-3-1-|-1-0-0-8-8-3-----|---0-0-8-8-3-3-1-|
| G|-1-0-0-8-8-3-----|---0-0-8-8-3-3-1-|-1-0-0-8-8-3-----|---0-0-8-8-3-3-1-|
|-C|-1-0-0-8-8-3-----|---0-0-8-8-3-3-1-|-1-0-0-8-8-3-----|---0-0-8-8-3-3-1-|
    P.M. - - - - - - - - - - - - - - - - - - - - - - - - - - - -|

  Guitars 1 and 2
  "change..."
D|-----------------|-----------------|-----------------|-----------------|
A|-----------------|-----------------|-----------------|-----------------|
F|-----------------|-----------------|-----------------|-----------------|
C|-1-0-0-8-8-3-1-1-|-1-0-0-8-8-3-3-1-|-1-0-0-8-8-3-1-1-|-1-0-0-8-8-3-3-1-|
G|-1-0-0-8-8-3-1-1-|-1-0-0-8-8-3-3-1-|-1-0-0-8-8-3-1-1-|-1-0-0-8-8-3-3-1-|
C|-1-0-0-8-8-3-1-1-|-1-0-0-8-8-3-3-1-|-1-0-0-8-8-3-1-1-|-1-0-0-8-8-3-3-1-|
	       P.M. - |			           P.M. - |

D|-----------------|-----------------|-----------------|-----------------|
A|-----------------|-----------------|-----------------|-----------------|
F|-----------------|-----------------|-----------------|-----------------|
C|-1-0-0-8-8-3-1-1-|-1-0-0-8-8-3-3-1-|-1-0-0-8-8-3-1-1-|-1-0-0-8-8-3-3-1-|
G|-1-0-0-8-8-3-1-1-|-1-0-0-8-8-3-3-1-|-1-0-0-8-8-3-1-1-|-1-0-0-8-8-3-3-1-|
C|-1-0-0-8-8-3-1-1-|-1-0-0-8-8-3-3-1-|-1-0-0-8-8-3-1-1-|-1-0-0-8-8-3-3-1-|
	       P.M. - |			           P.M. - |

REFRAIN
  "Sick of all this monotony..."
D||------------------|-----------------|-----------------|------------------||
A||------------------|-----------------|-----------------|------------------||
F||o-----------------|-----------------|-----------------|-----------------o||
C||o-5---------------|-3---------------|-6---------------|-5---------------o||
G||--5---------------|-3---------------|-6---------------|-5----------------||
C||--5---------------|-3---------------|-6---------------|-5----------------||
								   (Play 3x)

BRIDGE 
The bridge is mostly synthesizers, but there might be a guitar part in there I don't know.

REFRAIN
  "Sick of all this monotony..."
D||------------------|-----------------|-----------------|------------------||
A||------------------|-----------------|-----------------|------------------||
F||o-----------------|-----------------|-----------------|-----------------o||
C||o-5---------------|-3---------------|-6---------------|-5---------------o||
G||--5---------------|-3---------------|-6---------------|-5----------------||
C||--5---------------|-3---------------|-6---------------|-5----------------||
								   (Play 4x)

OUTRO
  "Kill the f***in music industry..."
D|-----------------|-----------------|-----------------|-----------------|
A|-----------------|-----------------|-----------------|-----------------|
F|-----------------|-----------------|-----------------|-----------------|
C|-1-0-0-8-8-3---1-|-1-0-0-8-8-3-3-1-|-1-0-0-8-8-3---1-|-1-0-0-8-8-3-3-1-|
G|-1-0-0-8-8-3---1-|-1-0-0-8-8-3-3-1-|-1-0-0-8-8-3---1-|-1-0-0-8-8-3-3-1-|
C|-1-0-0-8-8-3---1-|-1-0-0-8-8-3-3-1-|-1-0-0-8-8-3---1-|-1-0-0-8-8-3-3-1-|


  "Kill the f***in music industry..."
D|-----------------|-----------------|-----------------|-----------------|
A|-----------------|-----------------|-----------------|-----------------|
F|-----------------|-----------------|-----------------|-----------------|
C|-1-0-0-8-8-3---1-|-1-0-0-8-8-3-3-1-|-1-0-0-8-8-3---1-|-1-0-0-8-8-3-3-1-|
G|-1-0-0-8-8-3---1-|-1-0-0-8-8-3-3-1-|-1-0-0-8-8-3---1-|-1-0-0-8-8-3-3-1-|
C|-1-0-0-8-8-3---1-|-1-0-0-8-8-3-3-1-|-1-0-0-8-8-3---1-|-1-0-0-8-8-3-3-1-|
					      Fade out - - - - - - - - - |
Comments