Cold - Just Got Wicked Chords & Tabs

 

Just Got Wicked Chords & Tabs

Cold Chords & Tabs

Version: 3 Type: Tab 0 ratings
1 star 2 stars 3 stars 4 stars 5 stars
comments

Just Got Wicked Tab

#----------------------------------PLEASE NOTE--------------------------
#This file is the author's own work and represents their interpretation of the#
#song. You may only use this file for private study, scholarship, or research.#
#-----------------------------------------------------------------------
#-- File created with Instab - http://www.pconline.com/~smcarey/instab.html --#
#-----------------------------------------------------------------------

Author/Artist: Cold
Title: Just Got Wicked
Album: 13 Ways to Bleed on Stage
Transcribed by: Cj
Email: cjtheman_2@hotmail.com

THIS IS IN STANDARD TUNING!!!
[ Tab from: http://www.guitartabs.cc/tabs/c/cold/just_got_wicked_tab_ver_3.html ]
intro(Heavy distortion)
--------*3333--2222--1111-----------------------------------------------|
------------------------------------------------------------------------|
------------------------------------------------------------------------|
------------------------------------------------------------------------|
-3-3--------------------------------------------------------------------|
-3-3--------------------------------------------------------------------|
*tap with pick
verse(clean)
------------------------------------------------------------------------|
------------------------------------------------------------------------|
------------------------------------------------------------------------|
------------------------------------------------------------------------|
-3--5-6--8--------------------------------------------------------------|
-3--5-6--8--------------------------------------------------------------|

chorus(guitar 1)
-----------------/------------------------------------------------------|
-----------------/------------------------------------------------------|
-----------------/------------------------------------------------------|
--------3--------/----------1-----3-------------------------------------|
-----1-----------/-------------1----------------------------------------|
--3--------------/------------------------------------------------------|

chorus(guitar 2)
-----------------/------------------------------------------------------|
-----------------/------------------------------------------------------|
-----------------/------------------------------------------------------|
-----------------/--------1---------------------------------------------|
-#3--------------/--------1---------------------------------------------|
--3--------------/--------1---------------------------------------------|
 #sustain until second part on guitar 1

interlude(heavy distortion!)
------------------------------------------------------------------------|
------------------------------------------------------------------------|
------------------------------------------------------------------------|
------------------------------------------------------------------------|
--3----8-9--11----------------------------------------------------------|
--3----8-9--11----------------------------------------------------------|
Comments