Cold - Just Got Wicked Chords & Tabs

 

Just Got Wicked Chords & Tabs

Cold Chords & Tabs

Version: 1 Type: Tab 0 ratings
1 star 2 stars 3 stars 4 stars 5 stars
comments

Just Got Wicked Tab

Cold
Just Got Wicked 
Tabed by 
Tuning:  CGCFAD 

Riff 1: 3 times, Fill 1 on 4th time 
D--------------------------------------------I 
A--------------------------------------------I 
F--------------------------------------------I 
C--0-0---*19-19-19-19-19-18-18-18-18-17-17-17I 
G--0-0---------------------------------------I 
C--0-0---------------------------------------I 

*tap these notes with right hand 

Fill 1: 
D--------------------------------------------I 
A--------------------------------------------I 
F---------------------------19/21\19---------I 
C--*17-17-17-17-17/19-19-19------------------I 
G--------------------------------------------I 
C--------------------------------------------I 

Verse 1: just bass 
F--------------------------------------------I 
C--------------------------------------------I 
G--------------------------------------------I 
C--0--------2/3------------------------------I 

Chorus: 

Guitar 1 
[ Tab from: http://www.guitartabs.cc/tabs/c/cold/just_got_wicked_tab.html ]
D--------------------|-----------------------I 
A--------------------|-----------------------I 
F--------------------|-----------------------I 
C-----------5--------|-----------5-----------I 
G---0---3------------|-------3---------------I 
C--------------------|---3-------------------I 

Guitar 2 

D--------------------------------------------I 
A--------------------------------------------I 
F--------------------------------------------I 
C---7----------------|---5-------------------I 
G---7----------------|---3-------------------I 
C---7----------------|---3-------------------I 

Riff 1 again with Fill 1 on 4th time 

Verse 2 

Acoustic 

D--------------------------------------------I 
A--------------------------------------------I 
F--------------------------------------------I 
C--0-0-222-333-555---------------------------I 
G--0-0-222-333-555---------------------------I 
C--0-0-222-333-555---------------------------I 

Breakdown (before 1, 2, 3 here I come...) 

D-------I 
A-------I   you can figure 
F-------I   the rhythm out 
C---0---I 
G---0---I 
C---0---I 

C---h3---I harmomnics on third time of breakdown 

Chorus again 

Bridge 

D--------------------------------------------I 
A--------------------------------------------I 
F--------------------------------------------I 
C--0-0-555-6666/8888-------------------------I 
G--0-0-555-6666/8888-------------------------I 
C--0-0-555-6666/8888-------------------------I 
Comments