Cold - Just Got Wicked Chords & Tabs

 

Just Got Wicked Chords & Tabs

Cold Chords & Tabs

Version: 1 Type: Bass Tab 0 ratings
1 star 2 stars 3 stars 4 stars 5 stars
comments

Just Got Wicked Bass Tab

Artist: Cold	
Song: Just Got Wicked          
Tabbed by: Psychoryno101@hotmail.com	  m = mute string after note is played
			  ~ = let note ring
Drop C Tuning  ( CGCF  )

Intro/Verse      (0:05 - 0:37)	     	   
G|----------------------------------------------------|
C|-0-0-0-2-2-2-3-3-0-0-0-0---0-0-0-2-2-2-3-3\5-5-5-5--|
[ Tab from: http://www.guitartabs.cc/tabs/c/cold/just_got_wicked_btab.html ]
Chorus		(0:38 - 1:05)	
G|-----------------------------------------------------|
C|-7-7-7-7-7\10-10-10-10-10-10-----3-3-3-3-3\5-5-5-5-5-|

Verse               (1:06 - 2:01)

Interlude          (2:02 - 2:11)
G|-------------------------------------------------|
C|-0-0----0-0-0----0-0-----0-0-0---0-0---0-0-0---0-|

Verse                (2:14 - 2:41)

Bridge               (2:42 - 3:04)              
G|-------------------------|
C|-0-0-5-5-5-6-6-6\8-8-8-8-|

Verse                 (3:05 - end)
Comments