Cold - Just Got Wicked Acoustic Chords & Tabs

 

Just Got Wicked Acoustic Chords & Tabs

Cold Chords & Tabs

Version: 1 Type: Tab 0 ratings
1 star 2 stars 3 stars 4 stars 5 stars
comments

Just Got Wicked Acoustic Tab

#----------------------------------PLEASE NOTE--------------------------------#
#This file is the author's own work and represents their interpretation of the#
#song. You may only use this file for private study, scholarship, or research.#
#-----------------------------------------------------------------------------#
#-- File created with Instab - http://www.pconline.com/~smcarey/instab.html --#
#-----------------------------------------------------------------------------#


Cold-Just Got Wicked(acoustic)
-Standard Tuning-standard C to play along with song
-This is a sweet studio acoustic track i found last night,
I keep my acoustic guitar in standard D tuning, and i know Cold
plays in standard C-Inlyghtened1


-Intro-
----------0-0-0-0-0-0-0-0-0-0----------------|
--------x-5-5-5-5/4-4-4-4/3-3p0--------------|
--------x-0-0-0-0-0-0-0-0-0-0----------------|
----2-2-x------------------------------------|
----2-2-x------------------------------------|
----0-0-x------------------------------------|
[ Tab from: http://www.guitartabs.cc/tabs/c/cold/just_got_wicked_acoustic_tab.html ]
-Verses/Outro Chorus-
---------------------------------|---------------------------|
--------x------------------------|------x------x-----x-------|
--------x------------------------|------x------x-----x-------|
----2-2-x-4-4-4-4-5-5-5-5-7-7p0--|--2-2-x4-4-4-x5-5-5x7-7-7--|
----2-2-x-4-4-4-4-5-5-5-5-7-7p0--|--2-2-x4-4-4-x5-5-5x7-7-7--|
----0-0-x-2-2-2-2/3-3-3-3/5-5p0--|--0-0-x2-2-2-x3-3-3x5-5-5--|

-Chorus-
-------------------------------------------------------|
-----------0-0-0-0-0-0-0----------0-0-0-0-0-0-0--------|
-----------0-0-0-0-0-0-0----------0-0-0-0-0-0-0--------|
-----------7-7-7-7-7-7-7----------7-7-7-7-7-7-7--------|
-------5-5-5-5-5-5-5-5-5------5-5-5-5-5-5-5-5-5--------|
--/7-7-----7-7-7-7-7-7-7--3-3-----3-3-3-3-3-3-3--------|

-Second guitar Chorus-
-------------------------------------------------|
---------10-----10-----------10-----10p7---------|
-------7----7------7-------7----7--------7-------|
-----9--------9------9---7--------7--------7-----|
-------------------------------------------------|
-------------------------------------------------|

-Breakdown-(right before "123 here i come with the wicked")
-----------------------------------------------12*-----|
---------5*------------------------------------12*-----|
-----------5*-x-----xx----------x----x-xxxxxx----------|
----2-2-------x2-2--xx2-2-------x2-2-x-xxxxxx----------|
----2-2-------x2-2--xx2-2-------x2-2-x-xxxxxx----------|
----0-0-------x0-0--xx0-0-------x0-0-x-xxxxxx----------|
Comments