Cold - Its All Good Chords & Tabs

 

Its All Good Chords & Tabs

Cold Chords & Tabs

Version: 2 Type: Tab 0 ratings
1 star 2 stars 3 stars 4 stars 5 stars
comments

Its All Good Tab

   
Author/Artist: Cold
Title: It's All Good
Album: 13 Ways To Bleed On Stage
Transcribed by: Carlos Acosta
Email: Systemdown17@yahoo.com

tuning two whole steps down C F Bb Eb G C
intro: clean tone with some flange not to much though.
there is some piano in this song i will tab that next time.
Intro/verse 


-----------------------------|------------------------------------------------
--------9-------------9------|-------5-----------5----------------------------
------9---9---------9---9----|-----7---7-------7---7--------------------------
---11-------11---11-------11-|---7-------7---7-------7------------------------
-9-------------9-------------|-5-----------5-----------5----------------------
-----------------------------|------------------------------------------------
  Pre-Chorus (palm mute then gradually release palm mute)                     
[ Tab from: http://www.guitartabs.cc/tabs/c/cold/its_all_good_tab_ver_2.html ]
------------------------------------------------------------------------------
------------------------------------------------------------------------------
------------------------------------------------------------------------------
-7-7-7-7-7-7-7-7-7-7----------------------------------------------------------
-5-5-5-5-5-5-5-5-5-5----------------------------------------------------------
------------------------------------------------------------------------------
  Chorus 
------------------------------------------------------------------------------
------------------------------------------------------------------------------
------------------------------------------------------------------------------
-----6b-6-------6b-6-------6b-6-----------------------------------------------
-4-4------4-----------------------2-2--2-666----------------------------------
------------5-5------5-4-4------4-0-0--0-444----------------------------------
  Bridge (guitar 1)  not really sure on this one                              

------------------------------------------------------------------------------
------------------------------------------------------------------------------
----------9-------------------------------------------------------------------
-11-12-11----11-12------------------------------------------------------------
------------------------------------------------------------------------------
------------------------------------------------------------------------------
 (Guitar 2)   play the first three chords 8x each then 4x on the last two     

-----|-----|------|------|----------------------------------------------------
-----|-----|------|------|----------------------------------------------------
-----|-----|------|------|----------------------------------------------------
-----|-----|------|------|----------------------------------------------------
-9---|-4---|-5----|12----|11--------------------------------------------------
-7-x8|-2-x8|-3-x8-|10-x4-|9--x4-----------------------------------------------
  thats it! end with the chorus====================================================================

Cold
It's All Good
From: 13 Ways to Bleed on Stage
Tabbed By Dark Prince

Tuning:  CGCFAD


Intro

D-------2----------------------
A-----3---3-----------3--------
F---4-------4-------5---5------
C-2---------------5-------5----
G---------------3--------------
C------------------------------

Pre-Chorus

F-5-5-5-5-5-5-5-
C-5-5-5-5-5-5-5-
G-3-3-3-3-3-3-3-

Chorus

C-4-4-4^--4-----------4^---4------------4^----4----0--0--4--4-
G-2-2-2--2---2--5-5-5------------4-4-4-------------0--0--4--4-
C---------------5-5-5----5----5--4-4-4-----4----4--0--0--4--4-

Bridge

C-7*-2*-3*-10*-
G-7*-2*-3*-10*-
C-7*-2*-3*-10*-

Lead Bridge

C-----------------
G-----3-------3---
C-4-5---5-4-5---5-====
Comments