Cold - Its All Good Chords & Tabs

 

Its All Good Chords & Tabs

Cold Chords & Tabs

Version: 2 Type: Bass Tab 0 ratings
1 star 2 stars 3 stars 4 stars 5 stars
comments

Its All Good Bass Tab

	Band:   Cold
	Song:   It's All Good

*Intro/Verse*         	  
C-------------------------------------------------------------------------------
F-------------------------------------------------------------------------------
G-7-7-7-7-7-7-7-7-------------------------10-7-7-7-7-7-7-7-9-9-9-9--------------
D-----------------10-10-10-10-10-10-10-10--------------------------10-10-10-10--
[ Tab from: http://www.guitartabs.cc/tabs/c/cold/its_all_good_btab_ver_2.html ]
F---------------------------------------------------------------------
C---------------------------------------------------------------------
G---------------10----------------------------------------------------
D-8-8-8-8-8-8-8----8-8-8-8-10-8-8-8-8-8-8-8-8-10-8p7-8-8-8-88-8-8-8--

*Chorus*	
F--------------------------------------------------------
C--------------------------------------------------------
G--------------------------------------------------------
D-8-8-8-8-8-8-8-8--5-5-5-5-5-5--4-4-4-4-4--0-0-0--4-4-4--

*Bridge*
F-------------------------------------------------------------------------
C-------------------------------------------------------------------------
G-------------------------------------------------------------------------
D-7-7-7-7-7-7-7-7--2-2-2-2-2-2-2-2--3-3-3-3-3-3-3-3-3-3--0-0-0-0-0-0-0-0--
Comments